  0
SECTION
  2
HEADER
  9
$ACADVER
  1
AC1015
  9
$ACADMAINTVER
 70
     6
  9
$DWGCODEPAGE
  3
ANSI_1252
  9
$INSBASE
 10
0.0
 20
0.0
 30
0.0
  9
$EXTMIN
 10
0.0
 20
0.0
 30
0.0
  9
$EXTMAX
 10
279.4
 20
215.9
 30
0.0
  9
$LIMMIN
 10
0.0
 20
0.0
  9
$LIMMAX
 10
279.4
 20
215.9
  9
$ORTHOMODE
 70
     0
  9
$REGENMODE
 70
     1
  9
$FILLMODE
 70
     1
  9
$QTEXTMODE
 70
     0
  9
$MIRRTEXT
 70
     1
  9
$LTSCALE
 40
1.0
  9
$ATTMODE
 70
     1
  9
$TEXTSIZE
 40
3.5277777778
  9
$TRACEWID
 40
1.0
  9
$TEXTSTYLE
  7
Standard
  9
$CLAYER
  8
0
  9
$CELTYPE
  6
ByLayer
  9
$CECOLOR
 62
   256
  9
$CELTSCALE
 40
1.0
  9
$DISPSILH
 70
     0
  9
$DIMSCALE
 40
1.0
  9
$DIMASZ
 40
2.8251505534
  9
$DIMEXO
 40
1.27
  9
$DIMDLI
 40
3.75
  9
$DIMRND
 40
0.0
  9
$DIMDLE
 40
0.0
  9
$DIMEXE
 40
3.175
  9
$DIMTP
 40
0.0
  9
$DIMTM
 40
0.0
  9
$DIMTXT
 40
3.5277777778
  9
$DIMCEN
 40
2.5
  9
$DIMTSZ
 40
0.0
  9
$DIMTOL
 70
     0
  9
$DIMLIM
 70
     0
  9
$DIMTIH
 70
     1
  9
$DIMTOH
 70
     1
  9
$DIMSE1
 70
     0
  9
$DIMSE2
 70
     0
  9
$DIMTAD
 70
     0
  9
$DIMZIN
 70
     1
  9
$DIMBLK
  1

  9
$DIMASO
 70
     1
  9
$DIMSHO
 70
     1
  9
$DIMPOST
  1

  9
$DIMAPOST
  1

  9
$DIMALT
 70
     0
  9
$DIMALTD
 70
     3
  9
$DIMALTF
 40
0.0393700787
  9
$DIMLFAC
 40
0.1
  9
$DIMTOFL
 70
     1
  9
$DIMTVP
 40
0.0
  9
$DIMTIX
 70
     0
  9
$DIMSOXD
 70
     0
  9
$DIMSAH
 70
     0
  9
$DIMBLK1
  1

  9
$DIMBLK2
  1

  9
$DIMSTYLE
  2
ISO-25
  9
$DIMCLRD
 70
     0
  9
$DIMCLRE
 70
     0
  9
$DIMCLRT
 70
     0
  9
$DIMTFAC
 40
1.0
  9
$DIMGAP
 40
1.524
  9
$DIMJUST
 70
     0
  9
$DIMSD1
 70
     0
  9
$DIMSD2
 70
     0
  9
$DIMTOLJ
 70
     0
  9
$DIMTZIN
 70
     1
  9
$DIMALTZ
 70
     0
  9
$DIMALTTZ
 70
     0
  9
$DIMUPT
 70
     0
  9
$DIMDEC
 70
     2
  9
$DIMTDEC
 70
     2
  9
$DIMALTU
 70
     2
  9
$DIMALTTD
 70
     3
  9
$DIMTXSTY
  7
Standard
  9
$DIMAUNIT
 70
     0
  9
$DIMADEC
 70
     2
  9
$DIMALTRND
 40
0.0
  9
$DIMAZIN
 70
     0
  9
$DIMDSEP
 70
    44
  9
$DIMATFIT
 70
     3
  9
$DIMFRAC
 70
     0
  9
$DIMLDRBLK
  1

  9
$DIMLUNIT
 70
     2
  9
$DIMLWD
 70
    -2
  9
$DIMLWE
 70
    -2
  9
$DIMTMOVE
 70
     0
  9
$LUNITS
 70
     2
  9
$LUPREC
 70
     2
  9
$SKETCHINC
 40
1.0
  9
$FILLETRAD
 40
10.0
  9
$AUNITS
 70
     0
  9
$AUPREC
 70
     2
  9
$MENU
  1
.
  9
$ELEVATION
 40
0.0
  9
$PELEVATION
 40
0.0
  9
$THICKNESS
 40
0.0
  9
$LIMCHECK
 70
     0
  9
$CHAMFERA
 40
0.0
  9
$CHAMFERB
 40
0.0
  9
$CHAMFERC
 40
0.0
  9
$CHAMFERD
 40
0.0
  9
$SKPOLY
 70
     0
  9
$TDCREATE
 40
2458048.528658287
  9
$TDUCREATE
 40
2458048.820324954
  9
$TDUPDATE
 40
2458048.528666412
  9
$TDUUPDATE
 40
2458048.820333079
  9
$TDINDWG
 40
0.0000000116
  9
$TDUSRTIMER
 40
0.0000000116
  9
$USRTIMER
 70
     1
  9
$ANGBASE
 50
0.0
  9
$ANGDIR
 70
     0
  9
$PDMODE
 70
     0
  9
$PDSIZE
 40
-1.0
  9
$PLINEWID
 40
0.0
  9
$SPLFRAME
 70
     0
  9
$SPLINETYPE
 70
     6
  9
$SPLINESEGS
 70
     8
  9
$HANDSEED
  5
295
  9
$SURFTAB1
 70
     6
  9
$SURFTAB2
 70
     6
  9
$SURFTYPE
 70
     6
  9
$SURFU
 70
     6
  9
$SURFV
 70
     6
  9
$UCSBASE
  2

  9
$UCSNAME
  2

  9
$UCSORG
 10
0.0
 20
0.0
 30
0.0
  9
$UCSXDIR
 10
1.0
 20
0.0
 30
0.0
  9
$UCSYDIR
 10
0.0
 20
1.0
 30
0.0
  9
$UCSORTHOREF
  2

  9
$UCSORTHOVIEW
 70
     0
  9
$UCSORGTOP
 10
0.0
 20
0.0
 30
0.0
  9
$UCSORGBOTTOM
 10
0.0
 20
0.0
 30
0.0
  9
$UCSORGLEFT
 10
0.0
 20
0.0
 30
0.0
  9
$UCSORGRIGHT
 10
0.0
 20
0.0
 30
0.0
  9
$UCSORGFRONT
 10
0.0
 20
0.0
 30
0.0
  9
$UCSORGBACK
 10
0.0
 20
0.0
 30
0.0
  9
$PUCSBASE
  2

  9
$PUCSNAME
  2

  9
$PUCSORG
 10
0.0
 20
0.0
 30
0.0
  9
$PUCSXDIR
 10
1.0
 20
0.0
 30
0.0
  9
$PUCSYDIR
 10
0.0
 20
1.0
 30
0.0
  9
$PUCSORTHOREF
  2

  9
$PUCSORTHOVIEW
 70
     0
  9
$PUCSORGTOP
 10
0.0
 20
0.0
 30
0.0
  9
$PUCSORGBOTTOM
 10
0.0
 20
0.0
 30
0.0
  9
$PUCSORGLEFT
 10
0.0
 20
0.0
 30
0.0
  9
$PUCSORGRIGHT
 10
0.0
 20
0.0
 30
0.0
  9
$PUCSORGFRONT
 10
0.0
 20
0.0
 30
0.0
  9
$PUCSORGBACK
 10
0.0
 20
0.0
 30
0.0
  9
$USERI1
 70
     0
  9
$USERI2
 70
     0
  9
$USERI3
 70
     0
  9
$USERI4
 70
     0
  9
$USERI5
 70
     0
  9
$USERR1
 40
0.0
  9
$USERR2
 40
0.0
  9
$USERR3
 40
0.0
  9
$USERR4
 40
0.0
  9
$USERR5
 40
0.0
  9
$WORLDVIEW
 70
     1
  9
$SHADEDGE
 70
     3
  9
$SHADEDIF
 70
    70
  9
$TILEMODE
 70
     1
  9
$MAXACTVP
 70
    64
  9
$PINSBASE
 10
0.0
 20
0.0
 30
0.0
  9
$PLIMCHECK
 70
     0
  9
$PEXTMIN
 10
1.0000000000E+20
 20
1.0000000000E+20
 30
1.0000000000E+20
  9
$PEXTMAX
 10
-1.0000000000E+20
 20
-1.0000000000E+20
 30
-1.0000000000E+20
  9
$PLIMMIN
 10
0.0
 20
0.0
  9
$PLIMMAX
 10
420.0
 20
297.0
  9
$UNITMODE
 70
     0
  9
$VISRETAIN
 70
     1
  9
$PLINEGEN
 70
     0
  9
$PSLTSCALE
 70
     1
  9
$TREEDEPTH
 70
  3020
  9
$CMLSTYLE
  2
Standard
  9
$CMLJUST
 70
     0
  9
$CMLSCALE
 40
20.0
  9
$PROXYGRAPHICS
 70
     1
  9
$MEASUREMENT
 70
     1
  9
$CELWEIGHT
370
    -1
  9
$ENDCAPS
280
     0
  9
$JOINSTYLE
280
     0
  9
$LWDISPLAY
290
     1
  9
$INSUNITS
 70
     4
  9
$HYPERLINKBASE
  1

  9
$STYLESHEET
  1

  9
$XEDIT
290
     1
  9
$CEPSNTYPE
380
     0
  9
$PSTYLEMODE
290
     1
  9
$FINGERPRINTGUID
  2
{63C64307-EBEA-4652-ABAF-ED8C7D29C51E}
  9
$VERSIONGUID
  2
{FAEB1C32-E019-11D5-929B-00C0DF256EC4}
  9
$EXTNAMES
290
     1
  9
$PSVPSCALE
 40
0.0
  9
$OLESTARTUP
290
     0
  0
ENDSEC
  0
SECTION
  2
CLASSES
  0
CLASS
  1
ACDBDICTIONARYWDFLT
  2
AcDbDictionaryWithDefault
  3
ObjectDBX Classes
 90
        0
280
     0
281
     0
  0
CLASS
  1
VISUALSTYLE
  2
AcDbVisualStyle
  3
ObjectDBX Classes
 90
     4095
280
     0
281
     0
  0
CLASS
  1
MATERIAL
  2
AcDbMaterial
  3
ObjectDBX Classes
 90
     1153
280
     0
281
     0
  0
CLASS
  1
SCALE
  2
AcDbScale
  3
ObjectDBX Classes
 90
     1153
280
     0
281
     0
  0
CLASS
  1
TABLESTYLE
  2
AcDbTableStyle
  3
ObjectDBX Classes
 90
     4095
280
     0
281
     0
  0
CLASS
  1
MLEADERSTYLE
  2
AcDbMLeaderStyle
  3
ACDB_MLEADERSTYLE_CLASS
 90
     4095
280
     0
281
     0
  0
CLASS
  1
SUN
  2
AcDbSun
  3
SCENEOE
 90
     1153
280
     0
281
     0
  0
CLASS
  1
ACDBPLACEHOLDER
  2
AcDbPlaceHolder
  3
ObjectDBX Classes
 90
        0
280
     0
281
     0
  0
CLASS
  1
LAYOUT
  2
AcDbLayout
  3
ObjectDBX Classes
 90
        0
280
     0
281
     0
  0
ENDSEC
  0
SECTION
  2
TABLES
  0
TABLE
  2
VPORT
  5
8
330
0
100
AcDbSymbolTable
 70
     1
  0
VPORT
  5
29
330
8
100
AcDbSymbolTableRecord
100
AcDbViewportTableRecord
  2
*Active
 70
     0
 10
0.0
 20
0.0
 11
1.0
 21
1.0
 12
139.7
 22
107.95
 13
0.0
 23
0.0
 14
10.0
 24
10.0
 15
10.0
 25
10.0
 16
0.0
 26
0.0
 36
1.0
 17
0.0
 27
0.0
 37
0.0
 40
215.9
 41
1.2941176471
 42
50.0
 43
0.0
 44
0.0
 50
0.0
 51
0.0
 71
     0
 72
  2000
 73
     1
 74
     3
 75
     0
 76
     0
 77
     0
 78
     0
281
     0
 65
     1
110
0.0
120
0.0
130
0.0
111
1.0
121
0.0
131
0.0
112
0.0
122
1.0
132
0.0
 79
     0
146
0.0
  0
ENDTAB
  0
TABLE
  2
LTYPE
  5
5
330
0
100
AcDbSymbolTable
 70
     6
  0
LTYPE
  5
14
330
5
100
AcDbSymbolTableRecord
100
AcDbLinetypeTableRecord
  2
ByBlock
 70
     0
  3

 72
    65
 73
     0
 40
0.0
  0
LTYPE
  5
15
330
5
100
AcDbSymbolTableRecord
100
AcDbLinetypeTableRecord
  2
ByLayer
 70
     0
  3

 72
    65
 73
     0
 40
0.0
  0
LTYPE
  5
16
330
5
100
AcDbSymbolTableRecord
100
AcDbLinetypeTableRecord
  2
Continuous
 70
     0
  3
Solid line
 72
    65
 73
     0
 40
0.0
  0
LTYPE
  5
6E
330
5
100
AcDbSymbolTableRecord
100
AcDbLinetypeTableRecord
  2
HIDDEN
 70
     0
  3
Hidden __ __ __ __ __ __ __ __ __ __ __ __ __ __
 72
    65
 73
     2
 40
1.905
 49
1.27
 74
     0
 49
-0.635
 74
     0
  0
LTYPE
  5
6F
330
5
100
AcDbSymbolTableRecord
100
AcDbLinetypeTableRecord
  2
PHANTOM
 70
     0
  3
Phantom ______  __  __  ______  __  __  ______
 72
    65
 73
     6
 40
12.7
 49
6.35
 74
     0
 49
-1.27
 74
     0
 49
1.27
 74
     0
 49
-1.27
 74
     0
 49
1.27
 74
     0
 49
-1.27
 74
     0
  0
LTYPE
  5
70
330
5
100
AcDbSymbolTableRecord
100
AcDbLinetypeTableRecord
  2
CENTER
 70
     0
  3
Center ____ _ ____ _ ____ _ ____ _ ____ _ ____
 72
    65
 73
     4
 40
10.16
 49
6.35
 74
     0
 49
-1.27
 74
     0
 49
1.27
 74
     0
 49
-1.27
 74
     0
  0
LTYPE
  5
71
330
5
100
AcDbSymbolTableRecord
100
AcDbLinetypeTableRecord
  2
CENTERX2
 70
     0
  3
Center (2x) ________  __  ________  __  _____
 72
    65
 73
     4
 40
20.32
 49
12.7
 74
     0
 49
-2.54
 74
     0
 49
2.54
 74
     0
 49
-2.54
 74
     0
  0
LTYPE
  5
72
330
5
100
AcDbSymbolTableRecord
100
AcDbLinetypeTableRecord
  2
DOT2
 70
     0
  3
Dot (.5x) ........................................
 72
    65
 73
     2
 40
0.635
 49
0.0
 74
     0
 49
-0.635
 74
     0
  0
ENDTAB
  0
TABLE
  2
LAYER
  5
2
330
0
100
AcDbSymbolTable
 70
     4
  0
LAYER
  5
10
330
2
100
AcDbSymbolTableRecord
100
AcDbLayerTableRecord
  2
0
 70
     0
 62
     7
  6
Continuous
370
    -3
390
F
  0
LAYER
  5
73
330
2
100
AcDbSymbolTableRecord
100
AcDbLayerTableRecord
  2
FORMAT
 70
     0
 62
     7
  6
Continuous
370
    -3
390
F
  0
LAYER
  5
74
330
2
100
AcDbSymbolTableRecord
100
AcDbLayerTableRecord
  2
DIMENSIONS
 70
     0
 62
     5
  6
Continuous
370
    -3
390
F
  0
LAYER
  5
75
330
2
100
AcDbSymbolTableRecord
100
AcDbLayerTableRecord
  2
NOTES
 70
     0
 62
     7
  6
Continuous
370
    -3
390
F
  0
ENDTAB
  0
TABLE
  2
STYLE
  5
3
330
0
100
AcDbSymbolTable
 70
     4
  0
STYLE
  5
11
330
3
100
AcDbSymbolTableRecord
100
AcDbTextStyleTableRecord
  2
Standard
 70
     0
 40
0.0
 41
1.0
 50
0.0
 71
     0
 42
3.5277777778
  3
txt
  4

  0
STYLE
  5
10E
330
3
100
AcDbSymbolTableRecord
100
AcDbTextStyleTableRecord
  2
SLDTEXTSTYLE0
 70
     0
 40
0.0
 41
0.605
 50
0.0
 71
     0
 42
3.5277777778
  3
TXT
  4

  0
STYLE
  5
120
330
3
100
AcDbSymbolTableRecord
100
AcDbTextStyleTableRecord
  2
SLDTEXTSTYLE1
 70
     0
 40
0.0
 41
0.6385967368
 50
0.0
 71
     0
 42
3.5277777778
  3
TXT
  4

  0
STYLE
  5
122
330
3
100
AcDbSymbolTableRecord
100
AcDbTextStyleTableRecord
  2
SLDTEXTSTYLE2
 70
     0
 40
0.0
 41
0.7368421053
 50
0.0
 71
     0
 42
3.5277777778
  3
TXT
  4

  0
ENDTAB
  0
TABLE
  2
VIEW
  5
6
330
0
100
AcDbSymbolTable
 70
     0
  0
ENDTAB
  0
TABLE
  2
UCS
  5
7
330
0
100
AcDbSymbolTable
 70
     0
  0
ENDTAB
  0
TABLE
  2
APPID
  5
9
330
0
100
AcDbSymbolTable
 70
     1
  0
APPID
  5
12
330
9
100
AcDbSymbolTableRecord
100
AcDbRegAppTableRecord
  2
ACAD
 70
     0
  0
ENDTAB
  0
TABLE
  2
DIMSTYLE
  5
A
330
0
100
AcDbSymbolTable
 70
     1
100
AcDbDimStyleTable
  0
DIMSTYLE
105
27
330
A
100
AcDbSymbolTableRecord
100
AcDbDimStyleTableRecord
  2
ISO-25
 70
     0
 41
2.5
 42
0.625
 43
3.75
 44
1.25
 73
     0
 74
     0
 77
     1
 78
     8
140
2.5
141
2.5
143
0.0393700787
147
0.625
171
     3
172
     1
178
     0
271
     2
272
     2
274
     3
278
    44
283
     0
284
     8
340
11
  0
ENDTAB
  0
TABLE
  2
BLOCK_RECORD
  5
1
330
0
100
AcDbSymbolTable
 70
     2
  0
BLOCK_RECORD
  5
1F
330
1
100
AcDbSymbolTableRecord
100
AcDbBlockTableRecord
  2
*Model_Space
340
22
  0
BLOCK_RECORD
  5
1B
330
1
100
AcDbSymbolTableRecord
100
AcDbBlockTableRecord
  2
*Paper_Space
340
1E
  0
BLOCK_RECORD
  5
23
330
1
100
AcDbSymbolTableRecord
100
AcDbBlockTableRecord
  2
*Paper_Space0
340
26
  0
BLOCK_RECORD
  5
118
330
1
100
AcDbSymbolTableRecord
100
AcDbBlockTableRecord
  2
SW_NOTE_5
340
0
102
{BLKREFS
331
11D
102
}
  0
ENDTAB
  0
ENDSEC
  0
SECTION
  2
BLOCKS
  0
BLOCK
  5
20
330
1F
100
AcDbEntity
  8
0
100
AcDbBlockBegin
  2
*Model_Space
 70
     0
 10
0.0
 20
0.0
 30
0.0
  3
*Model_Space
  1

  0
ENDBLK
  5
21
330
1F
100
AcDbEntity
  8
0
100
AcDbBlockEnd
  0
BLOCK
  5
1C
330
1B
100
AcDbEntity
 67
     1
  8
0
100
AcDbBlockBegin
  2
*Paper_Space
 70
     0
 10
0.0
 20
0.0
 30
0.0
  3
*Paper_Space
  1

  0
ENDBLK
  5
1D
330
1B
100
AcDbEntity
 67
     1
  8
0
100
AcDbBlockEnd
  0
BLOCK
  5
24
330
23
100
AcDbEntity
  8
0
100
AcDbBlockBegin
  2
*Paper_Space0
 70
     0
 10
0.0
 20
0.0
 30
0.0
  3
*Paper_Space0
  1

  0
ENDBLK
  5
25
330
23
100
AcDbEntity
  8
0
100
AcDbBlockEnd
  0
BLOCK
  5
119
330
118
100
AcDbEntity
  8
0
100
AcDbBlockBegin
  2
SW_NOTE_5
 70
     0
 10
0.0
 20
0.0
 30
0.0
  3
SW_NOTE_5
  1

  0
MTEXT
  5
11B
330
118
100
AcDbEntity
  8
FORMAT
 62
     0
100
AcDbMText
 10
18.266579375
 20
2.9148915359
 30
0.0
 40
2.26124
 41
0.0
 71
     2
 72
     1
  1
72-LEAD 10mm P=0.5 mm
  7
SLDTEXTSTYLE0
 73
     1
 44
1.0
  0
MTEXT
  5
11C
330
118
100
AcDbEntity
  8
FORMAT
 62
     0
100
AcDbMText
 10
18.2626525038
 20
-0.0058766878
 30
0.0
 40
2.26124
 41
0.0
 71
     2
 72
     1
  1
M-QFN72T.5-G3
  7
SLDTEXTSTYLE0
 73
     1
 44
1.0
  0
ENDBLK
  5
11A
330
118
100
AcDbEntity
  8
0
100
AcDbBlockEnd
  0
ENDSEC
  0
SECTION
  2
ENTITIES
  0
HATCH
  5
76
330
1F
100
AcDbEntity
  8
FORMAT
 62
     5
100
AcDbHatch
 10
0.0
 20
0.0
 30
0.0
210
0.0
220
0.0
230
1.0
  2
SOLID
 70
     1
 71
     0
 91
        1
 92
        0
 93
        5
 72
     1
 10
233.2043523684437
 20
36.68096854877886
 11
233.2176596316435
 21
36.69427581197871
 72
     1
 10
233.2176596316435
 20
36.69427581197871
 11
234.1558216872437
 21
41.46626039549884
 72
     1
 10
234.1558216872437
 20
41.46626039549884
 11
233.0113970520437
 21
40.59729610853886
 72
     1
 10
233.0113970520437
 20
40.59729610853886
 11
232.2661903128435
 21
36.68096854877886
 72
     1
 10
232.2661903128435
 20
36.68096854877886
 11
233.2043523684437
 21
36.68096854877886
 97
        0
 75
     0
 76
     1
 98
        1
 10
0.0
 20
0.0
  0
HATCH
  5
77
330
1F
100
AcDbEntity
  8
FORMAT
 62
     5
100
AcDbHatch
 10
0.0
 20
0.0
 30
0.0
210
0.0
220
0.0
230
1.0
  2
SOLID
 70
     1
 71
     0
 91
        1
 92
        0
 93
        4
 72
     1
 10
231.1497109303635
 20
38.22461107997889
 11
231.8935869432435
 21
39.68707930565873
 72
     1
 10
231.8935869432435
 20
39.68707930565873
 11
230.3353064225235
 21
38.54265467045887
 72
     1
 10
230.3353064225235
 20
38.54265467045887
 11
230.4870092230035
 21
38.1979965535789
 72
     1
 10
230.4870092230035
 20
38.1979965535789
 11
231.1497109303635
 21
38.22461107997889
 97
        0
 75
     0
 76
     1
 98
        1
 10
0.0
 20
0.0
  0
HATCH
  5
78
330
1F
100
AcDbEntity
  8
FORMAT
 62
     5
100
AcDbHatch
 10
0.0
 20
0.0
 30
0.0
210
0.0
220
0.0
230
1.0
  2
SOLID
 70
     1
 71
     0
 91
        1
 92
        0
 93
       14
 72
     1
 10
227.5846951190836
 20
37.99572615293882
 11
227.6086481928436
 21
38.09153844797875
 72
     1
 10
227.6086481928436
 20
38.09153844797875
 11
227.4183543290835
 21
37.18531382405889
 72
     1
 10
227.4183543290835
 20
37.18531382405889
 11
228.7517421017236
 21
37.92386693165886
 72
     1
 10
228.7517421017236
 20
37.92386693165886
 11
229.4663421355637
 21
40.94993858333883
 72
     1
 10
229.4663421355637
 20
40.94993858333883
 11
229.9906483056434
 21
39.49678544189878
 72
     1
 10
229.9906483056434
 20
39.49678544189878
 11
230.1290438429236
 21
38.98312508237885
 72
     1
 10
230.1290438429236
 20
38.98312508237885
 11
234.1411836977236
 21
41.82422577557882
 72
     1
 10
234.1411836977236
 20
41.82422577557882
 11
234.2939510792594
 21
42.56261919602048
 72
     1
 10
234.2939510792594
 20
42.56261919602048
 11
234.3035323087633
 21
42.56943251477884
 72
     1
 10
234.3035323087633
 20
42.56943251477884
 11
232.5163668610033
 21
42.56943251477885
 72
     1
 10
232.5163668610033
 20
42.56943251477885
 11
230.6347198445235
 21
40.16347932821877
 72
     1
 10
230.6347198445235
 20
40.16347932821877
 11
229.8961667369235
 21
42.59338558853883
 72
     1
 10
229.8961667369235
 20
42.59338558853883
 11
228.3472013004436
 21
42.59338558853883
 72
     1
 10
228.3472013004436
 20
42.59338558853883
 11
227.5846951190836
 21
37.99572615293882
 97
        0
 75
     0
 76
     1
 98
        1
 10
0.0
 20
0.0
  0
HATCH
  5
79
330
1F
100
AcDbEntity
  8
FORMAT
 62
     5
100
AcDbHatch
 10
0.0
 20
0.0
 30
0.0
210
0.0
220
0.0
230
1.0
  2
SOLID
 70
     1
 71
     0
 91
        1
 92
        0
 93
        3
 72
     1
 10
227.3691174552436
 20
36.57184899053899
 11
228.5068884588437
 21
36.57584116949884
 72
     1
 10
228.5068884588437
 20
36.57584116949884
 11
228.8435622178036
 21
37.44214400381889
 72
     1
 10
228.8435622178036
 20
37.44214400381889
 11
227.3691174552436
 21
36.57184899053899
 97
        0
 75
     0
 76
     1
 98
        1
 10
0.0
 20
0.0
  0
HATCH
  5
7A
330
1F
100
AcDbEntity
  8
FORMAT
 62
     5
100
AcDbHatch
 10
0.0
 20
0.0
 30
0.0
210
0.0
220
0.0
230
1.0
  2
SOLID
 70
     1
 71
     0
 91
        1
 92
        0
 93
        4
 72
     1
 10
235.4253345965235
 20
39.25677564282372
 11
234.4552351092435
 21
39.27008290602376
 72
     1
 10
234.4552351092435
 20
39.27008290602376
 11
233.6195389802836
 21
36.6698436767438
 72
     1
 10
233.6195389802836
 20
36.6698436767438
 11
234.5630239411636
 21
36.6698436767438
 72
     1
 10
234.5630239411636
 20
36.6698436767438
 11
235.4253345965235
 21
39.25677564282372
 97
        0
 75
     0
 76
     1
 98
        1
 10
0.0
 20
0.0
  0
HATCH
  5
7B
330
1F
100
AcDbEntity
  8
FORMAT
 62
     5
100
AcDbHatch
 10
0.0
 20
0.0
 30
0.0
210
0.0
220
0.0
230
1.0
  2
SOLID
 70
     1
 71
     0
 91
        1
 92
        0
 93
        4
 72
     1
 10
235.7007949447637
 20
40.29921341285888
 11
234.7573099838835
 21
40.29921341285888
 72
     1
 10
234.7573099838835
 20
40.29921341285888
 11
234.6095993623635
 21
39.86805808517888
 72
     1
 10
234.6095993623635
 20
39.86805808517888
 11
235.4852172809235
 21
39.86805808517888
 72
     1
 10
235.4852172809235
 20
39.86805808517888
 11
235.7007949447637
 21
40.29921341285888
 97
        0
 75
     0
 76
     1
 98
        1
 10
0.0
 20
0.0
  0
HATCH
  5
7C
330
1F
100
AcDbEntity
  8
FORMAT
 62
     5
100
AcDbHatch
 10
0.0
 20
0.0
 30
0.0
210
0.0
220
0.0
230
1.0
  2
SOLID
 70
     1
 71
     0
 91
        1
 92
        0
 93
        4
 72
     1
 10
237.4493693292436
 20
39.31133542194379
 11
236.4792698419635
 21
39.32464268514363
 72
     1
 10
236.4792698419635
 20
39.32464268514363
 11
235.6435737130034
 21
36.72440345586379
 72
     1
 10
235.6435737130034
 20
36.72440345586379
 11
236.5870586738835
 21
36.72440345586379
 72
     1
 10
236.5870586738835
 20
36.72440345586379
 11
237.4493693292436
 21
39.31133542194379
 97
        0
 75
     0
 76
     1
 98
        1
 10
0.0
 20
0.0
  0
HATCH
  5
7D
330
1F
100
AcDbEntity
  8
FORMAT
 62
     5
100
AcDbHatch
 10
0.0
 20
0.0
 30
0.0
210
0.0
220
0.0
230
1.0
  2
SOLID
 70
     1
 71
     0
 91
        1
 92
        0
 93
        4
 72
     1
 10
237.2604061918034
 20
38.64378987077896
 11
237.1725782546835
 21
38.41091276477881
 72
     2
 10
237.9536287161166
 20
36.68165918964395
 40
1.89746086927281
 50
245.69277487793
 51
287.5544885508828
 73
     0
 72
     1
 10
238.5259269221234
 20
38.49075634397897
 11
238.6935984384442
 21
39.29052286230165
 72
     2
 10
238.8305203238161
 20
37.07571831024762
 40
2.219032853856182
 50
93.53759196352873
 51
135.0372924741154
 73
     1
 97
        0
 75
     0
 76
     1
 98
        1
 10
0.0
 20
0.0
  0
HATCH
  5
7E
330
1F
100
AcDbEntity
  8
FORMAT
 62
     5
100
AcDbHatch
 10
0.0
 20
0.0
 30
0.0
210
0.0
220
0.0
230
1.0
  2
SOLID
 70
     1
 71
     0
 91
        1
 92
        0
 93
        8
 72
     2
 10
241.0861584733965
 20
36.68298991596386
 40
1.89746086927288
 50
113.6470200075399
 51
114.3072251220664
 73
     1
 72
     1
 10
240.3051080119635
 20
38.41224349109883
 11
240.3929359490835
 21
38.64512059709883
 72
     2
 10
241.9630500810934
 20
37.07704903656472
 40
2.21903285385615
 50
224.9627075259873
 51
225.3339717379579
 73
     0
 72
     1
 10
240.4031296037894
 20
38.65526160494095
 11
240.6098443392436
 21
39.27540581130365
 72
     1
 10
240.6098443392436
 20
39.27540581130365
 11
239.6397448519635
 21
39.28871307450365
 72
     1
 10
239.6397448519635
 20
39.28871307450365
 11
238.8040487230035
 21
36.68847384522365
 72
     1
 10
238.8040487230035
 20
36.68847384522365
 11
239.7475336838836
 21
36.68847384522365
 72
     1
 10
239.7475336838836
 20
36.68847384522365
 11
240.3250851837873
 21
38.42112834493471
 97
        0
 75
     0
 76
     1
 98
        1
 10
0.0
 20
0.0
  0
HATCH
  5
7F
330
1F
100
AcDbEntity
  8
FORMAT
 62
     5
100
AcDbHatch
 10
0.0
 20
0.0
 30
0.0
210
0.0
220
0.0
230
1.0
  2
SOLID
 70
     1
 71
     0
 91
        1
 92
        0
 93
        4
 72
     1
 10
240.4031296037894
 20
38.65526160494095
 11
240.3250851837873
 21
38.42112834493471
 72
     2
 10
241.0861584733965
 20
36.68298991596386
 40
1.89746086927288
 50
246.352979992461
 51
287.5544885508905
 73
     0
 72
     1
 10
241.6584566794035
 20
38.49208707029883
 11
241.8261281957236
 21
39.29185358861886
 72
     2
 10
241.9630500810934
 20
37.07704903656472
 40
2.21903285385615
 50
93.53759196347507
 51
134.6660282620429
 73
     1
 97
        0
 75
     0
 76
     1
 98
        1
 10
0.0
 20
0.0
  0
HATCH
  5
80
330
1F
100
AcDbEntity
  8
FORMAT
 62
     5
100
AcDbHatch
 10
0.0
 20
0.0
 30
0.0
210
0.0
220
0.0
230
1.0
  2
SOLID
 70
     1
 71
     0
 91
        2
 92
        0
 93
        2
 72
     2
 10
242.9758757362035
 20
37.95048145805878
 40
1.218040415222443
 50
0.0
 51
180.0
 73
     1
 72
     2
 10
242.9758757362035
 20
37.95048145805878
 40
1.218040415222443
 50
180.0
 51
360.0000000000008
 73
     1
 97
        0
 92
        0
 93
        2
 72
     2
 10
242.9984980836437
 20
37.97842671077878
 40
0.6570594277632569
 50
0.0
 51
180.0
 73
     0
 72
     2
 10
242.9984980836437
 20
37.97842671077878
 40
0.6570594277632569
 50
180.0
 51
360.0000000000008
 73
     0
 97
        0
 75
     0
 76
     1
 98
        1
 10
0.0
 20
0.0
  0
HATCH
  5
81
330
1F
100
AcDbEntity
  8
FORMAT
 62
     5
100
AcDbHatch
 10
0.0
 20
0.0
 30
0.0
210
0.0
220
0.0
230
1.0
  2
SOLID
 70
     1
 71
     0
 91
        1
 92
        0
 93
        8
 72
     2
 10
246.4556391745965
 20
36.66435974748386
 40
1.897460869272783
 50
113.7841350920132
 51
114.3072251220602
 73
     1
 72
     1
 10
245.6745887131637
 20
38.39361332261883
 11
245.7624166502835
 21
38.62649042861888
 72
     2
 10
247.3325307822933
 20
37.05841886808472
 40
2.219032853856148
 50
224.9627075259891
 51
225.1412016455075
 73
     0
 72
     1
 10
245.767309290618
 20
38.63137420390667
 11
245.9819864930836
 21
39.27540581130364
 72
     1
 10
245.9819864930836
 20
39.27540581130364
 11
245.0118870058036
 21
39.28871307450364
 72
     1
 10
245.0118870058036
 20
39.28871307450364
 11
244.1761908768437
 21
36.68847384522365
 72
     1
 10
244.1761908768437
 20
36.68847384522365
 11
245.1196758377237
 21
36.68847384522365
 72
     1
 10
245.1196758377237
 20
36.68847384522365
 11
245.6904085123836
 21
38.40067186920353
 97
        0
 75
     0
 76
     1
 98
        1
 10
0.0
 20
0.0
  0
HATCH
  5
82
330
1F
100
AcDbEntity
  8
FORMAT
 62
     5
100
AcDbHatch
 10
0.0
 20
0.0
 30
0.0
210
0.0
220
0.0
230
1.0
  2
SOLID
 70
     1
 71
     0
 91
        1
 92
        0
 93
        4
 72
     1
 10
245.767309290618
 20
38.63137420390667
 11
245.6904085123836
 21
38.40067186920353
 72
     2
 10
246.4556391745965
 20
36.66435974748386
 40
1.897460869272783
 50
246.2158649079877
 51
287.5544885508897
 73
     0
 72
     1
 10
247.0279373806035
 20
38.47345690181875
 11
247.1956088969235
 21
39.27322342013886
 72
     2
 10
247.3325307822933
 20
37.05841886808472
 40
2.219032853856148
 50
93.53759196347363
 51
134.8587983544933
 73
     1
 97
        0
 75
     0
 76
     1
 98
        1
 10
0.0
 20
0.0
  0
LINE
  5
83
330
1F
100
AcDbEntity
  8
FORMAT
100
AcDbLine
 10
8.3801458
 20
208.0786585366
 30
0.0
 11
270.0001458
 21
208.0786585366
 31
0.0
  0
LINE
  5
84
330
1F
100
AcDbEntity
  8
FORMAT
100
AcDbLine
 10
8.3801458
 20
208.0786585366
 30
0.0
 11
8.3801458
 21
9.9586585366
 31
0.0
  0
LINE
  5
85
330
1F
100
AcDbEntity
  8
FORMAT
100
AcDbLine
 10
270.0001458
 20
9.9586585366
 30
0.0
 11
8.3801458
 21
9.9586585366
 31
0.0
  0
LINE
  5
86
330
1F
100
AcDbEntity
  8
FORMAT
100
AcDbLine
 10
270.0001458
 20
9.9586585366
 30
0.0
 11
270.0001458
 21
208.0786585366
 31
0.0
  0
LINE
  5
87
330
1F
100
AcDbEntity
  8
FORMAT
 62
     5
100
AcDbLine
 10
244.1761908768
 20
36.6884738452
 30
0.0
 11
245.1196758377
 21
36.6884738452
 31
0.0
  0
LINE
  5
88
330
1F
100
AcDbEntity
  8
FORMAT
 62
     5
100
AcDbLine
 10
245.1196758377
 20
36.6884738452
 30
0.0
 11
245.9819864931
 21
39.2754058113
 31
0.0
  0
LINE
  5
89
330
1F
100
AcDbEntity
  8
FORMAT
 62
     5
100
AcDbLine
 10
245.9819864931
 20
39.2754058113
 30
0.0
 11
245.0118870058
 21
39.2887130745
 31
0.0
  0
LINE
  5
8A
330
1F
100
AcDbEntity
  8
FORMAT
 62
     5
100
AcDbLine
 10
245.0118870058
 20
39.2887130745
 30
0.0
 11
244.1761908768
 21
36.6884738452
 31
0.0
  0
LINE
  5
8B
330
1F
100
AcDbEntity
  8
FORMAT
 62
     5
100
AcDbLine
 10
238.804048723
 20
36.6884738452
 30
0.0
 11
239.7475336839
 21
36.6884738452
 31
0.0
  0
LINE
  5
8C
330
1F
100
AcDbEntity
  8
FORMAT
 62
     5
100
AcDbLine
 10
239.7475336839
 20
36.6884738452
 30
0.0
 11
240.6098443392
 21
39.2754058113
 31
0.0
  0
LINE
  5
8D
330
1F
100
AcDbEntity
  8
FORMAT
 62
     5
100
AcDbLine
 10
240.6098443392
 20
39.2754058113
 30
0.0
 11
239.639744852
 21
39.2887130745
 31
0.0
  0
LINE
  5
8E
330
1F
100
AcDbEntity
  8
FORMAT
 62
     5
100
AcDbLine
 10
239.639744852
 20
39.2887130745
 30
0.0
 11
238.804048723
 21
36.6884738452
 31
0.0
  0
LINE
  5
8F
330
1F
100
AcDbEntity
  8
FORMAT
 62
     5
100
AcDbLine
 10
235.643573713
 20
36.7244034559
 30
0.0
 11
236.5870586739
 21
36.7244034559
 31
0.0
  0
LINE
  5
90
330
1F
100
AcDbEntity
  8
FORMAT
 62
     5
100
AcDbLine
 10
236.5870586739
 20
36.7244034559
 30
0.0
 11
237.4493693292
 21
39.3113354219
 31
0.0
  0
LINE
  5
91
330
1F
100
AcDbEntity
  8
FORMAT
 62
     5
100
AcDbLine
 10
237.4493693292
 20
39.3113354219
 30
0.0
 11
236.479269842
 21
39.3246426851
 31
0.0
  0
LINE
  5
92
330
1F
100
AcDbEntity
  8
FORMAT
 62
     5
100
AcDbLine
 10
236.479269842
 20
39.3246426851
 30
0.0
 11
235.643573713
 21
36.7244034559
 31
0.0
  0
LINE
  5
93
330
1F
100
AcDbEntity
  8
FORMAT
 62
     5
100
AcDbLine
 10
245.7624166503
 20
38.6264904286
 30
0.0
 11
245.6745887132
 21
38.3936133226
 31
0.0
  0
LINE
  5
94
330
1F
100
AcDbEntity
  8
FORMAT
 62
     5
100
AcDbLine
 10
247.0279373806
 20
38.4734569018
 30
0.0
 11
247.1956088969
 21
39.2732234201
 31
0.0
  0
LINE
  5
95
330
1F
100
AcDbEntity
  8
FORMAT
 62
     5
100
AcDbLine
 10
240.3929359491
 20
38.6451205971
 30
0.0
 11
240.305108012
 21
38.4122434911
 31
0.0
  0
LINE
  5
96
330
1F
100
AcDbEntity
  8
FORMAT
 62
     5
100
AcDbLine
 10
241.6584566794
 20
38.4920870703
 30
0.0
 11
241.8261281957
 21
39.2918535886
 31
0.0
  0
LINE
  5
97
330
1F
100
AcDbEntity
  8
FORMAT
 62
     5
100
AcDbLine
 10
237.2604061918
 20
38.6437898708
 30
0.0
 11
237.1725782547
 21
38.4109127648
 31
0.0
  0
LINE
  5
98
330
1F
100
AcDbEntity
  8
FORMAT
 62
     5
100
AcDbLine
 10
238.5259269221
 20
38.490756344
 30
0.0
 11
238.6935984384
 21
39.2905228623
 31
0.0
  0
LINE
  5
99
330
1F
100
AcDbEntity
  8
FORMAT
 62
     5
100
AcDbLine
 10
234.6095993624
 20
39.8680580852
 30
0.0
 11
235.4852172809
 21
39.8680580852
 31
0.0
  0
LINE
  5
9A
330
1F
100
AcDbEntity
  8
FORMAT
 62
     5
100
AcDbLine
 10
235.4852172809
 20
39.8680580852
 30
0.0
 11
235.7007949448
 21
40.2992134129
 31
0.0
  0
LINE
  5
9B
330
1F
100
AcDbEntity
  8
FORMAT
 62
     5
100
AcDbLine
 10
235.7007949448
 20
40.2992134129
 30
0.0
 11
234.7573099839
 21
40.2992134129
 31
0.0
  0
LINE
  5
9C
330
1F
100
AcDbEntity
  8
FORMAT
 62
     5
100
AcDbLine
 10
234.7573099839
 20
40.2992134129
 30
0.0
 11
234.6095993624
 21
39.8680580852
 31
0.0
  0
LINE
  5
9D
330
1F
100
AcDbEntity
  8
FORMAT
 62
     5
100
AcDbLine
 10
233.6195389803
 20
36.6698436767
 30
0.0
 11
234.5630239412
 21
36.6698436767
 31
0.0
  0
LINE
  5
9E
330
1F
100
AcDbEntity
  8
FORMAT
 62
     5
100
AcDbLine
 10
234.5630239412
 20
36.6698436767
 30
0.0
 11
235.4253345965
 21
39.2567756428
 31
0.0
  0
LINE
  5
9F
330
1F
100
AcDbEntity
  8
FORMAT
 62
     5
100
AcDbLine
 10
235.4253345965
 20
39.2567756428
 30
0.0
 11
234.4552351092
 21
39.270082906
 31
0.0
  0
LINE
  5
A0
330
1F
100
AcDbEntity
  8
FORMAT
 62
     5
100
AcDbLine
 10
234.4552351092
 20
39.270082906
 30
0.0
 11
233.6195389803
 21
36.6698436767
 31
0.0
  0
LINE
  5
A1
330
1F
100
AcDbEntity
  8
FORMAT
 62
     5
100
AcDbLine
 10
230.3353064225
 20
38.5426546705
 30
0.0
 11
230.487009223
 21
38.1979965536
 31
0.0
  0
LINE
  5
A2
330
1F
100
AcDbEntity
  8
FORMAT
 62
     5
100
AcDbLine
 10
230.487009223
 20
38.1979965536
 30
0.0
 11
231.1497109304
 21
38.22461108
 31
0.0
  0
LINE
  5
A3
330
1F
100
AcDbEntity
  8
FORMAT
 62
     5
100
AcDbLine
 10
231.1497109304
 20
38.22461108
 30
0.0
 11
231.8935869432
 21
39.6870793057
 31
0.0
  0
LINE
  5
A4
330
1F
100
AcDbEntity
  8
FORMAT
 62
     5
100
AcDbLine
 10
231.8935869432
 20
39.6870793057
 30
0.0
 11
230.3353064225
 21
38.5426546705
 31
0.0
  0
LINE
  5
A5
330
1F
100
AcDbEntity
  8
FORMAT
 62
     5
100
AcDbLine
 10
233.2043523684
 20
36.6809685488
 30
0.0
 11
232.2661903128
 21
36.6809685488
 31
0.0
  0
LINE
  5
A6
330
1F
100
AcDbEntity
  8
FORMAT
 62
     5
100
AcDbLine
 10
232.2661903128
 20
36.6809685488
 30
0.0
 11
233.011397052
 21
40.5972961085
 31
0.0
  0
LINE
  5
A7
330
1F
100
AcDbEntity
  8
FORMAT
 62
     5
100
AcDbLine
 10
233.011397052
 20
40.5972961085
 30
0.0
 11
234.1558216872
 21
41.4662603955
 31
0.0
  0
LINE
  5
A8
330
1F
100
AcDbEntity
  8
FORMAT
 62
     5
100
AcDbLine
 10
234.1558216872
 20
41.4662603955
 30
0.0
 11
233.2176596316
 21
36.694275812
 31
0.0
  0
LINE
  5
A9
330
1F
100
AcDbEntity
  8
FORMAT
 62
     5
100
AcDbLine
 10
233.2176596316
 20
36.694275812
 30
0.0
 11
233.2043523684
 21
36.6809685488
 31
0.0
  0
LINE
  5
AA
330
1F
100
AcDbEntity
  8
FORMAT
 62
     5
100
AcDbLine
 10
228.8435622178
 20
37.4421440038
 30
0.0
 11
227.3691174552
 21
36.5718489905
 31
0.0
  0
LINE
  5
AB
330
1F
100
AcDbEntity
  8
FORMAT
 62
     5
100
AcDbLine
 10
227.3691174552
 20
36.5718489905
 30
0.0
 11
228.5068884588
 21
36.5758411695
 31
0.0
  0
LINE
  5
AC
330
1F
100
AcDbEntity
  8
FORMAT
 62
     5
100
AcDbLine
 10
228.5068884588
 20
36.5758411695
 30
0.0
 11
228.8435622178
 21
37.4421440038
 31
0.0
  0
LINE
  5
AD
330
1F
100
AcDbEntity
  8
FORMAT
 62
     5
100
AcDbLine
 10
227.5846951191
 20
37.9957261529
 30
0.0
 11
228.3472013004
 21
42.5933855885
 31
0.0
  0
LINE
  5
AE
330
1F
100
AcDbEntity
  8
FORMAT
 62
     5
100
AcDbLine
 10
228.3472013004
 20
42.5933855885
 30
0.0
 11
229.8961667369
 21
42.5933855885
 31
0.0
  0
LINE
  5
AF
330
1F
100
AcDbEntity
  8
FORMAT
 62
     5
100
AcDbLine
 10
229.8961667369
 20
42.5933855885
 30
0.0
 11
230.6347198445
 21
40.1634793282
 31
0.0
  0
LINE
  5
B0
330
1F
100
AcDbEntity
  8
FORMAT
 62
     5
100
AcDbLine
 10
230.6347198445
 20
40.1634793282
 30
0.0
 11
232.516366861
 21
42.5694325148
 31
0.0
  0
LINE
  5
B1
330
1F
100
AcDbEntity
  8
FORMAT
 62
     5
100
AcDbLine
 10
232.516366861
 20
42.5694325148
 30
0.0
 11
234.3035323088
 21
42.5694325148
 31
0.0
  0
LINE
  5
B2
330
1F
100
AcDbEntity
  8
FORMAT
 62
     5
100
AcDbLine
 10
234.3035323088
 20
42.5694325148
 30
0.0
 11
234.2939510793
 21
42.562619196
 31
0.0
  0
LINE
  5
B3
330
1F
100
AcDbEntity
  8
FORMAT
 62
     5
100
AcDbLine
 10
234.2939510793
 20
42.562619196
 30
0.0
 11
234.1411836977
 21
41.8242257756
 31
0.0
  0
LINE
  5
B4
330
1F
100
AcDbEntity
  8
FORMAT
 62
     5
100
AcDbLine
 10
234.1411836977
 20
41.8242257756
 30
0.0
 11
230.1290438429
 21
38.9831250824
 31
0.0
  0
LINE
  5
B5
330
1F
100
AcDbEntity
  8
FORMAT
 62
     5
100
AcDbLine
 10
230.1290438429
 20
38.9831250824
 30
0.0
 11
229.9906483056
 21
39.4967854419
 31
0.0
  0
LINE
  5
B6
330
1F
100
AcDbEntity
  8
FORMAT
 62
     5
100
AcDbLine
 10
229.9906483056
 20
39.4967854419
 30
0.0
 11
229.4663421356
 21
40.9499385833
 31
0.0
  0
LINE
  5
B7
330
1F
100
AcDbEntity
  8
FORMAT
 62
     5
100
AcDbLine
 10
229.4663421356
 20
40.9499385833
 30
0.0
 11
228.7517421017
 21
37.9238669317
 31
0.0
  0
LINE
  5
B8
330
1F
100
AcDbEntity
  8
FORMAT
 62
     5
100
AcDbLine
 10
228.7517421017
 20
37.9238669317
 30
0.0
 11
227.4183543291
 21
37.1853138241
 31
0.0
  0
LINE
  5
B9
330
1F
100
AcDbEntity
  8
FORMAT
 62
     5
100
AcDbLine
 10
227.4183543291
 20
37.1853138241
 30
0.0
 11
227.6086481928
 21
38.091538448
 31
0.0
  0
LINE
  5
BA
330
1F
100
AcDbEntity
  8
FORMAT
 62
     5
100
AcDbLine
 10
227.6086481928
 20
38.091538448
 30
0.0
 11
227.5846951191
 21
37.9957261529
 31
0.0
  0
LINE
  5
BB
330
1F
100
AcDbEntity
  8
FORMAT
 62
     5
370
    15
100
AcDbLine
 10
227.5846951191
 20
37.9957261529
 30
0.0
 11
228.3472013004
 21
42.5933855885
 31
0.0
  0
LINE
  5
BC
330
1F
100
AcDbEntity
  8
FORMAT
 62
     5
370
    15
100
AcDbLine
 10
228.3472013004
 20
42.5933855885
 30
0.0
 11
229.8961667369
 21
42.5933855885
 31
0.0
  0
LINE
  5
BD
330
1F
100
AcDbEntity
  8
FORMAT
 62
     5
370
    15
100
AcDbLine
 10
229.8961667369
 20
42.5933855885
 30
0.0
 11
230.6347198445
 21
40.1634793282
 31
0.0
  0
LINE
  5
BE
330
1F
100
AcDbEntity
  8
FORMAT
 62
     5
370
    15
100
AcDbLine
 10
230.6347198445
 20
40.1634793282
 30
0.0
 11
232.516366861
 21
42.5694325148
 31
0.0
  0
LINE
  5
BF
330
1F
100
AcDbEntity
  8
FORMAT
 62
     5
370
    15
100
AcDbLine
 10
232.516366861
 20
42.5694325148
 30
0.0
 11
234.3035323088
 21
42.5694325148
 31
0.0
  0
LINE
  5
C0
330
1F
100
AcDbEntity
  8
FORMAT
 62
     5
370
    15
100
AcDbLine
 10
234.3035323088
 20
42.5694325148
 30
0.0
 11
234.2939510793
 21
42.562619196
 31
0.0
  0
LINE
  5
C1
330
1F
100
AcDbEntity
  8
FORMAT
 62
     5
370
    15
100
AcDbLine
 10
234.2939510793
 20
42.562619196
 30
0.0
 11
234.1411836977
 21
41.8242257756
 31
0.0
  0
LINE
  5
C2
330
1F
100
AcDbEntity
  8
FORMAT
 62
     5
370
    15
100
AcDbLine
 10
234.1411836977
 20
41.8242257756
 30
0.0
 11
230.1290438429
 21
38.9831250824
 31
0.0
  0
LINE
  5
C3
330
1F
100
AcDbEntity
  8
FORMAT
 62
     5
370
    15
100
AcDbLine
 10
230.1290438429
 20
38.9831250824
 30
0.0
 11
229.9906483056
 21
39.4967854419
 31
0.0
  0
LINE
  5
C4
330
1F
100
AcDbEntity
  8
FORMAT
 62
     5
370
    15
100
AcDbLine
 10
229.9906483056
 20
39.4967854419
 30
0.0
 11
229.4663421356
 21
40.9499385833
 31
0.0
  0
LINE
  5
C5
330
1F
100
AcDbEntity
  8
FORMAT
 62
     5
370
    15
100
AcDbLine
 10
229.4663421356
 20
40.9499385833
 30
0.0
 11
228.7517421017
 21
37.9238669317
 31
0.0
  0
LINE
  5
C6
330
1F
100
AcDbEntity
  8
FORMAT
 62
     5
370
    15
100
AcDbLine
 10
228.7517421017
 20
37.9238669317
 30
0.0
 11
227.4183543291
 21
37.1853138241
 31
0.0
  0
LINE
  5
C7
330
1F
100
AcDbEntity
  8
FORMAT
 62
     5
370
    15
100
AcDbLine
 10
227.4183543291
 20
37.1853138241
 30
0.0
 11
227.6086481928
 21
38.091538448
 31
0.0
  0
LINE
  5
C8
330
1F
100
AcDbEntity
  8
FORMAT
 62
     5
370
    15
100
AcDbLine
 10
227.6086481928
 20
38.091538448
 30
0.0
 11
227.5846951191
 21
37.9957261529
 31
0.0
  0
LINE
  5
C9
330
1F
100
AcDbEntity
  8
FORMAT
 62
     5
370
    15
100
AcDbLine
 10
228.8435622178
 20
37.4421440038
 30
0.0
 11
227.3691174552
 21
36.5718489905
 31
0.0
  0
LINE
  5
CA
330
1F
100
AcDbEntity
  8
FORMAT
 62
     5
370
    15
100
AcDbLine
 10
227.3691174552
 20
36.5718489905
 30
0.0
 11
228.5068884588
 21
36.5758411695
 31
0.0
  0
LINE
  5
CB
330
1F
100
AcDbEntity
  8
FORMAT
 62
     5
370
    15
100
AcDbLine
 10
228.5068884588
 20
36.5758411695
 30
0.0
 11
228.8435622178
 21
37.4421440038
 31
0.0
  0
LINE
  5
CC
330
1F
100
AcDbEntity
  8
FORMAT
 62
     5
370
    15
100
AcDbLine
 10
233.2043523684
 20
36.6809685488
 30
0.0
 11
232.2661903128
 21
36.6809685488
 31
0.0
  0
LINE
  5
CD
330
1F
100
AcDbEntity
  8
FORMAT
 62
     5
370
    15
100
AcDbLine
 10
232.2661903128
 20
36.6809685488
 30
0.0
 11
233.011397052
 21
40.5972961085
 31
0.0
  0
LINE
  5
CE
330
1F
100
AcDbEntity
  8
FORMAT
 62
     5
370
    15
100
AcDbLine
 10
233.011397052
 20
40.5972961085
 30
0.0
 11
234.1558216872
 21
41.4662603955
 31
0.0
  0
LINE
  5
CF
330
1F
100
AcDbEntity
  8
FORMAT
 62
     5
370
    15
100
AcDbLine
 10
234.1558216872
 20
41.4662603955
 30
0.0
 11
233.2176596316
 21
36.694275812
 31
0.0
  0
LINE
  5
D0
330
1F
100
AcDbEntity
  8
FORMAT
 62
     5
370
    15
100
AcDbLine
 10
233.2176596316
 20
36.694275812
 30
0.0
 11
233.2043523684
 21
36.6809685488
 31
0.0
  0
LINE
  5
D1
330
1F
100
AcDbEntity
  8
FORMAT
 62
     5
370
    15
100
AcDbLine
 10
230.3353064225
 20
38.5426546705
 30
0.0
 11
230.487009223
 21
38.1979965536
 31
0.0
  0
LINE
  5
D2
330
1F
100
AcDbEntity
  8
FORMAT
 62
     5
370
    15
100
AcDbLine
 10
230.487009223
 20
38.1979965536
 30
0.0
 11
231.1497109304
 21
38.22461108
 31
0.0
  0
LINE
  5
D3
330
1F
100
AcDbEntity
  8
FORMAT
 62
     5
370
    15
100
AcDbLine
 10
231.1497109304
 20
38.22461108
 30
0.0
 11
231.8935869432
 21
39.6870793057
 31
0.0
  0
LINE
  5
D4
330
1F
100
AcDbEntity
  8
FORMAT
 62
     5
370
    15
100
AcDbLine
 10
231.8935869432
 20
39.6870793057
 30
0.0
 11
230.3353064225
 21
38.5426546705
 31
0.0
  0
LINE
  5
D5
330
1F
100
AcDbEntity
  8
FORMAT
 62
     5
370
    15
100
AcDbLine
 10
233.6195389803
 20
36.6698436767
 30
0.0
 11
234.5630239412
 21
36.6698436767
 31
0.0
  0
LINE
  5
D6
330
1F
100
AcDbEntity
  8
FORMAT
 62
     5
370
    15
100
AcDbLine
 10
234.5630239412
 20
36.6698436767
 30
0.0
 11
235.4253345965
 21
39.2567756428
 31
0.0
  0
LINE
  5
D7
330
1F
100
AcDbEntity
  8
FORMAT
 62
     5
370
    15
100
AcDbLine
 10
235.4253345965
 20
39.2567756428
 30
0.0
 11
234.4552351092
 21
39.270082906
 31
0.0
  0
LINE
  5
D8
330
1F
100
AcDbEntity
  8
FORMAT
 62
     5
370
    15
100
AcDbLine
 10
234.4552351092
 20
39.270082906
 30
0.0
 11
233.6195389803
 21
36.6698436767
 31
0.0
  0
LINE
  5
D9
330
1F
100
AcDbEntity
  8
FORMAT
 62
     5
370
    15
100
AcDbLine
 10
234.6095993624
 20
39.8680580852
 30
0.0
 11
235.4852172809
 21
39.8680580852
 31
0.0
  0
LINE
  5
DA
330
1F
100
AcDbEntity
  8
FORMAT
 62
     5
370
    15
100
AcDbLine
 10
235.4852172809
 20
39.8680580852
 30
0.0
 11
235.7007949448
 21
40.2992134129
 31
0.0
  0
LINE
  5
DB
330
1F
100
AcDbEntity
  8
FORMAT
 62
     5
370
    15
100
AcDbLine
 10
235.7007949448
 20
40.2992134129
 30
0.0
 11
234.7573099839
 21
40.2992134129
 31
0.0
  0
LINE
  5
DC
330
1F
100
AcDbEntity
  8
FORMAT
 62
     5
370
    15
100
AcDbLine
 10
234.7573099839
 20
40.2992134129
 30
0.0
 11
234.6095993624
 21
39.8680580852
 31
0.0
  0
LINE
  5
DD
330
1F
100
AcDbEntity
  8
FORMAT
 62
     5
370
    15
100
AcDbLine
 10
237.2604061918
 20
38.6437898708
 30
0.0
 11
237.1725782547
 21
38.4109127648
 31
0.0
  0
LINE
  5
DE
330
1F
100
AcDbEntity
  8
FORMAT
 62
     5
370
    15
100
AcDbLine
 10
238.5259269221
 20
38.490756344
 30
0.0
 11
238.6935984384
 21
39.2905228623
 31
0.0
  0
LINE
  5
DF
330
1F
100
AcDbEntity
  8
FORMAT
 62
     5
370
    15
100
AcDbLine
 10
240.3929359491
 20
38.6451205971
 30
0.0
 11
240.305108012
 21
38.4122434911
 31
0.0
  0
LINE
  5
E0
330
1F
100
AcDbEntity
  8
FORMAT
 62
     5
370
    15
100
AcDbLine
 10
241.6584566794
 20
38.4920870703
 30
0.0
 11
241.8261281957
 21
39.2918535886
 31
0.0
  0
LINE
  5
E1
330
1F
100
AcDbEntity
  8
FORMAT
 62
     5
370
    15
100
AcDbLine
 10
245.7624166503
 20
38.6264904286
 30
0.0
 11
245.6745887132
 21
38.3936133226
 31
0.0
  0
LINE
  5
E2
330
1F
100
AcDbEntity
  8
FORMAT
 62
     5
370
    15
100
AcDbLine
 10
247.0279373806
 20
38.4734569018
 30
0.0
 11
247.1956088969
 21
39.2732234201
 31
0.0
  0
LINE
  5
E3
330
1F
100
AcDbEntity
  8
FORMAT
 62
     5
370
    15
100
AcDbLine
 10
235.643573713
 20
36.7244034559
 30
0.0
 11
236.5870586739
 21
36.7244034559
 31
0.0
  0
LINE
  5
E4
330
1F
100
AcDbEntity
  8
FORMAT
 62
     5
370
    15
100
AcDbLine
 10
236.5870586739
 20
36.7244034559
 30
0.0
 11
237.4493693292
 21
39.3113354219
 31
0.0
  0
LINE
  5
E5
330
1F
100
AcDbEntity
  8
FORMAT
 62
     5
370
    15
100
AcDbLine
 10
237.4493693292
 20
39.3113354219
 30
0.0
 11
236.479269842
 21
39.3246426851
 31
0.0
  0
LINE
  5
E6
330
1F
100
AcDbEntity
  8
FORMAT
 62
     5
370
    15
100
AcDbLine
 10
236.479269842
 20
39.3246426851
 30
0.0
 11
235.643573713
 21
36.7244034559
 31
0.0
  0
LINE
  5
E7
330
1F
100
AcDbEntity
  8
FORMAT
 62
     5
370
    15
100
AcDbLine
 10
238.804048723
 20
36.6884738452
 30
0.0
 11
239.7475336839
 21
36.6884738452
 31
0.0
  0
LINE
  5
E8
330
1F
100
AcDbEntity
  8
FORMAT
 62
     5
370
    15
100
AcDbLine
 10
239.7475336839
 20
36.6884738452
 30
0.0
 11
240.6098443392
 21
39.2754058113
 31
0.0
  0
LINE
  5
E9
330
1F
100
AcDbEntity
  8
FORMAT
 62
     5
370
    15
100
AcDbLine
 10
240.6098443392
 20
39.2754058113
 30
0.0
 11
239.639744852
 21
39.2887130745
 31
0.0
  0
LINE
  5
EA
330
1F
100
AcDbEntity
  8
FORMAT
 62
     5
370
    15
100
AcDbLine
 10
239.639744852
 20
39.2887130745
 30
0.0
 11
238.804048723
 21
36.6884738452
 31
0.0
  0
LINE
  5
EB
330
1F
100
AcDbEntity
  8
FORMAT
 62
     5
370
    15
100
AcDbLine
 10
244.1761908768
 20
36.6884738452
 30
0.0
 11
245.1196758377
 21
36.6884738452
 31
0.0
  0
LINE
  5
EC
330
1F
100
AcDbEntity
  8
FORMAT
 62
     5
370
    15
100
AcDbLine
 10
245.1196758377
 20
36.6884738452
 30
0.0
 11
245.9819864931
 21
39.2754058113
 31
0.0
  0
LINE
  5
ED
330
1F
100
AcDbEntity
  8
FORMAT
 62
     5
370
    15
100
AcDbLine
 10
245.9819864931
 20
39.2754058113
 30
0.0
 11
245.0118870058
 21
39.2887130745
 31
0.0
  0
LINE
  5
EE
330
1F
100
AcDbEntity
  8
FORMAT
 62
     5
370
    15
100
AcDbLine
 10
245.0118870058
 20
39.2887130745
 30
0.0
 11
244.1761908768
 21
36.6884738452
 31
0.0
  0
LINE
  5
EF
330
1F
100
AcDbEntity
  8
0
  6
Continuous
 62
   179
370
     0
100
AcDbLine
 10
270.0001458
 20
14.5137213527
 30
0.0
 11
203.18217691
 21
14.5137213527
 31
0.0
  0
LINE
  5
F0
330
1F
100
AcDbEntity
  8
0
  6
Continuous
 62
   179
370
     0
100
AcDbLine
 10
203.18217691
 20
23.6266804656
 30
0.0
 11
270.0001458
 21
23.6266804656
 31
0.0
  0
LINE
  5
F1
330
1F
100
AcDbEntity
  8
0
  6
Continuous
 62
   179
370
     0
100
AcDbLine
 10
270.0001458
 20
32.7368060978
 30
0.0
 11
203.18217691
 21
32.7368060978
 31
0.0
  0
LINE
  5
F2
330
1F
100
AcDbEntity
  8
0
  6
Continuous
 62
   179
370
     0
100
AcDbLine
 10
228.9792322894
 20
23.6266804656
 30
0.0
 11
228.9792322894
 21
14.5137213527
 31
0.0
  0
LINE
  5
F3
330
1F
100
AcDbEntity
  8
0
  6
Continuous
 62
   179
370
     0
100
AcDbLine
 10
220.4866523003
 20
23.6266804656
 30
0.0
 11
220.4866523003
 21
14.5137213527
 31
0.0
  0
LINE
  5
F4
330
1F
100
AcDbEntity
  8
0
  6
Continuous
 62
   179
370
     0
100
AcDbLine
 10
245.702716491
 20
14.5137213527
 30
0.0
 11
245.702716491
 21
9.9586585366
 31
0.0
  0
LINE
  5
F5
330
1F
100
AcDbEntity
  8
0
  6
Continuous
 62
   179
370
     0
100
AcDbLine
 10
257.4265877205
 20
23.6744922625
 30
0.0
 11
257.4265877205
 21
14.6037545655
 31
0.0
  0
LINE
  5
F6
330
1F
100
AcDbEntity
  8
0
  6
Continuous
 62
   179
370
     0
100
AcDbLine
 10
203.18217691
 20
43.3690469585
 30
0.0
 11
203.18217691
 21
14.5137213527
 31
0.0
  0
LINE
  5
F7
330
1F
100
AcDbEntity
  8
0
  6
Continuous
 62
   179
370
     0
100
AcDbLine
 10
203.18217691
 20
14.5137213527
 30
0.0
 11
203.18217691
 21
9.9586585366
 31
0.0
  0
LINE
  5
F8
330
1F
100
AcDbEntity
  8
0
  6
Continuous
 62
   179
370
     0
100
AcDbLine
 10
270.0001458
 20
43.3690469585
 30
0.0
 11
203.18217691
 21
43.3690469585
 31
0.0
  0
LINE
  5
F9
330
1F
100
AcDbEntity
  8
0
  6
Continuous
 62
   179
370
     0
100
AcDbLine
 10
166.7360329466
 20
9.9586585366
 30
0.0
 11
203.18217691
 21
9.9586585366
 31
0.0
  0
LINE
  5
FA
330
1F
100
AcDbEntity
  8
FORMAT
100
AcDbLine
 10
270.0001458
 20
43.3690469585
 30
0.0
 11
270.0001458
 21
9.9586585366
 31
0.0
  0
LINE
  5
FB
330
1F
100
AcDbEntity
  8
FORMAT
100
AcDbLine
 10
270.0001458
 20
9.9586585366
 30
0.0
 11
203.18217691
 21
9.9586585366
 31
0.0
  0
ARC
  5
FC
330
1F
100
AcDbEntity
  8
FORMAT
 62
     5
100
AcDbCircle
 10
242.9984980836
 20
37.9784267108
 30
0.0
 40
0.6570594277632722
100
AcDbArc
 50
0.0
 51
180.0
  0
ARC
  5
FD
330
1F
100
AcDbEntity
  8
FORMAT
 62
     5
100
AcDbCircle
 10
242.9984980836
 20
37.9784267108
 30
0.0
 40
0.6570594277632722
100
AcDbArc
 50
180.0
 51
0.0
  0
ARC
  5
FE
330
1F
100
AcDbEntity
  8
FORMAT
 62
     5
100
AcDbCircle
 10
242.9758757362
 20
37.9504814581
 30
0.0
 40
1.218040415222447
100
AcDbArc
 50
0.0
 51
180.0
  0
ARC
  5
FF
330
1F
100
AcDbEntity
  8
FORMAT
 62
     5
100
AcDbCircle
 10
242.9758757362
 20
37.9504814581
 30
0.0
 40
1.218040415222447
100
AcDbArc
 50
180.0
 51
0.0
  0
ARC
  5
100
330
1F
100
AcDbEntity
  8
FORMAT
 62
     5
100
AcDbCircle
 10
247.3325307823
 20
37.0584188681
 30
0.0
 40
2.219032853856151
100
AcDbArc
 50
93.5375919635
 51
135.037292474
  0
ARC
  5
101
330
1F
100
AcDbEntity
  8
FORMAT
 62
     5
100
AcDbCircle
 10
246.4556391746
 20
36.6643597475
 30
0.0
 40
1.897460869272785
100
AcDbArc
 50
72.4455114491
 51
114.3072251221
  0
ARC
  5
102
330
1F
100
AcDbEntity
  8
FORMAT
 62
     5
100
AcDbCircle
 10
241.9630500811
 20
37.0770490366
 30
0.0
 40
2.219032853856162
100
AcDbArc
 50
93.5375919635
 51
135.037292474
  0
ARC
  5
103
330
1F
100
AcDbEntity
  8
FORMAT
 62
     5
100
AcDbCircle
 10
241.0861584734
 20
36.682989916
 30
0.0
 40
1.897460869272884
100
AcDbArc
 50
72.4455114491
 51
114.3072251221
  0
ARC
  5
104
330
1F
100
AcDbEntity
  8
FORMAT
 62
     5
100
AcDbCircle
 10
238.8305203238
 20
37.0757183102
 30
0.0
 40
2.219032853856187
100
AcDbArc
 50
93.5375919635
 51
135.0372924741
  0
ARC
  5
105
330
1F
100
AcDbEntity
  8
FORMAT
 62
     5
100
AcDbCircle
 10
237.9536287161
 20
36.6816591896
 30
0.0
 40
1.89746086927281
100
AcDbArc
 50
72.4455114491
 51
114.3072251221
  0
ARC
  5
106
330
1F
100
AcDbEntity
  8
FORMAT
 62
     5
370
    15
100
AcDbCircle
 10
238.8305203238
 20
37.0757183102
 30
0.0
 40
2.219032853856187
100
AcDbArc
 50
93.5375919635
 51
135.0372924741
  0
ARC
  5
107
330
1F
100
AcDbEntity
  8
FORMAT
 62
     5
370
    15
100
AcDbCircle
 10
237.9536287161
 20
36.6816591896
 30
0.0
 40
1.89746086927281
100
AcDbArc
 50
72.4455114491
 51
114.3072251221
  0
ARC
  5
108
330
1F
100
AcDbEntity
  8
FORMAT
 62
     5
370
    15
100
AcDbCircle
 10
241.9630500811
 20
37.0770490366
 30
0.0
 40
2.219032853856162
100
AcDbArc
 50
93.5375919635
 51
135.037292474
  0
ARC
  5
109
330
1F
100
AcDbEntity
  8
FORMAT
 62
     5
370
    15
100
AcDbCircle
 10
241.0861584734
 20
36.682989916
 30
0.0
 40
1.897460869272884
100
AcDbArc
 50
72.4455114491
 51
114.3072251221
  0
ARC
  5
10A
330
1F
100
AcDbEntity
  8
FORMAT
 62
     5
370
    15
100
AcDbCircle
 10
247.3325307823
 20
37.0584188681
 30
0.0
 40
2.219032853856151
100
AcDbArc
 50
93.5375919635
 51
135.037292474
  0
ARC
  5
10B
330
1F
100
AcDbEntity
  8
FORMAT
 62
     5
370
    15
100
AcDbCircle
 10
246.4556391746
 20
36.6643597475
 30
0.0
 40
1.897460869272785
100
AcDbArc
 50
72.4455114491
 51
114.3072251221
  0
CIRCLE
  5
10C
330
1F
100
AcDbEntity
  8
FORMAT
 62
     5
370
    15
100
AcDbCircle
 10
242.9758757362
 20
37.9504814581
 30
0.0
 40
1.218040415222599
  0
CIRCLE
  5
10D
330
1F
100
AcDbEntity
  8
FORMAT
 62
     5
370
    15
100
AcDbCircle
 10
242.9984980836
 20
37.9784267108
 30
0.0
 40
0.6570594277630736
  0
MTEXT
  5
10F
330
1F
100
AcDbEntity
  8
FORMAT
100
AcDbMText
 10
263.4307057071
 20
19.2894966898
 30
0.0
 40
2.2612371419
 41
0.0
 71
     2
 72
     1
  1
A
  7
SLDTEXTSTYLE0
 73
     1
 44
1.0
  0
MTEXT
  5
110
330
1F
100
AcDbEntity
  8
FORMAT
100
AcDbMText
 10
243.2242737459
 20
19.2894966898
 30
0.0
 40
2.2612371419
 41
0.0
 71
     2
 72
     1
  1
457230
  7
SLDTEXTSTYLE0
 73
     1
 44
1.0
  0
MTEXT
  5
111
330
1F
100
AcDbEntity
  8
FORMAT
100
AcDbMText
 10
224.6762148859
 20
19.2894966898
 30
0.0
 40
2.2612371419
 41
0.0
 71
     2
 72
     1
  1
A
  7
SLDTEXTSTYLE0
 73
     1
 44
1.0
  0
MTEXT
  5
112
330
1F
100
AcDbEntity
  8
FORMAT
100
AcDbMText
 10
205.6982716504
 20
22.4833706819
 30
0.0
 40
1.4358855171
 41
0.0
 71
     1
 72
     1
  1
SCALE
  7
SLDTEXTSTYLE0
 73
     1
 44
1.0
  0
MTEXT
  5
113
330
1F
100
AcDbEntity
  8
FORMAT
100
AcDbMText
 10
259.830374655
 20
22.5039936938
 30
0.0
 40
1.4565622683
 41
0.0
 71
     1
 72
     1
  1
REV
  7
SLDTEXTSTYLE0
 73
     1
 44
1.0
  0
MTEXT
  5
114
330
1F
100
AcDbEntity
  8
FORMAT
100
AcDbMText
 10
232.1493636441
 20
22.5039936938
 30
0.0
 40
1.4565622683
 41
0.0
 71
     1
 72
     1
  1
DRAWING NO.
  7
SLDTEXTSTYLE0
 73
     1
 44
1.0
  0
MTEXT
  5
115
330
1F
100
AcDbEntity
  8
FORMAT
100
AcDbMText
 10
222.529036827
 20
22.5039936938
 30
0.0
 40
1.4565622683
 41
0.0
 71
     1
 72
     1
  1
SIZE
  7
SLDTEXTSTYLE0
 73
     1
 44
1.0
  0
MTEXT
  5
116
330
1F
100
AcDbEntity
  8
FORMAT
100
AcDbMText
 10
205.6982716504
 20
31.2764036059
 30
0.0
 40
1.4565622683
 41
0.0
 71
     1
 72
     1
  1
TITLE
  7
SLDTEXTSTYLE0
 73
     1
 44
1.0
  0
MTEXT
  5
117
330
1F
100
AcDbEntity
  8
FORMAT
100
AcDbMText
 10
211.6317745204
 20
12.9040765301
 30
0.0
 40
1.4565622683
 41
0.0
 71
     1
 72
     1
  1
DO NOT SCALE DRAWING
  7
SLDTEXTSTYLE0
 73
     1
 44
1.0
  0
INSERT
  5
11D
330
1F
100
AcDbEntity
  8
FORMAT
100
AcDbBlockReference
  2
SW_NOTE_5
 10
217.9877526459
 20
28.1762665872
 30
0.0
  0
MTEXT
  5
11E
330
1F
100
AcDbEntity
  8
FORMAT
100
AcDbMText
 10
257.7905157598
 20
13.3140036615
 30
0.0
 40
1.8520833333
 41
0.0
 71
     2
 72
     1
  1
SHEET 3 OF 4
  7
SLDTEXTSTYLE0
 73
     1
 44
1.0
  0
MTEXT
  5
11F
330
1F
100
AcDbEntity
  8
FORMAT
100
AcDbMText
 10
212.1206198748
 20
20.0714445725
 30
0.0
 40
2.2612371419
 41
0.0
 71
     2
 72
     1
  1
14:1
  7
SLDTEXTSTYLE0
 73
     1
 44
1.0
  0
MTEXT
  5
121
330
1F
100
AcDbEntity
  8
FORMAT
 62
     5
100
AcDbMText
 10
227.9418745116
 20
35.2815883901
 30
0.0
 40
1.5875
 41
0.0
 71
     1
 72
     1
  1
Semiconductor
  7
SLDTEXTSTYLE1
 73
     1
 44
1.0
  0
MTEXT
  5
123
330
1F
100
AcDbEntity
  8
FORMAT
 62
     5
100
AcDbMText
 10
245.0042687724
 20
35.7476523085
 30
0.0
 40
0.79375
 41
0.0
 71
     1
 72
     1
  1
TM
  7
SLDTEXTSTYLE2
 73
     1
 44
1.0
  0
LWPOLYLINE
  5
124
330
1F
100
AcDbEntity
  8
0
  6
Continuous
 62
     7
370
     0
100
AcDbPolyline
 90
      374
 70
   128
 43
0.0
 10
187.7224162884
 20
182.0350310703
 10
187.7190709777
 20
182.0350310703
 10
186.897607214
 20
182.0350310703
 10
183.5866064496
 20
182.0350310703
 10
180.2756056852
 20
182.0350310703
 10
176.9646049209
 20
182.0350310703
 10
173.6536041565
 20
182.0350310703
 10
170.3426033921
 20
182.0350310703
 10
167.031606353
 20
182.0350310703
 10
163.7206055887
 20
182.0350310703
 10
160.4096048243
 20
182.0350310703
 10
157.0986040599
 20
182.0350310703
 10
153.7876051582
 20
182.0350310703
 10
150.4766043938
 20
182.0350310703
 10
147.1656054921
 20
182.0350310703
 10
143.8546056591
 20
182.0350310703
 10
140.543605826
 20
182.0350310703
 10
137.2326055273
 20
182.0350310703
 10
133.9216056943
 20
182.0350310703
 10
130.6106058612
 20
182.0350310703
 10
127.2996060282
 20
182.0350310703
 10
123.9886057294
 20
182.0350310703
 10
120.6776058964
 20
182.0350310703
 10
117.3666060634
 20
182.0350310703
 10
114.0556071616
 20
182.0350310703
 10
110.7446063973
 20
182.0350310703
 10
107.4336074955
 20
182.0350310703
 10
104.1226067312
 20
182.0350310703
 10
100.8116059668
 20
182.0350310703
 10
97.5006052024
 20
182.0350310703
 10
94.1896081633
 20
182.0350310703
 10
90.878607399
 20
182.0350310703
 10
87.5676066346
 20
182.0350310703
 10
84.2566058702
 20
182.0350310703
 10
80.9456051059
 20
182.0350310703
 10
77.6346043415
 20
182.0350310703
 10
75.9501286514
 20
182.0350310703
 10
75.1383431919
 20
181.2590978046
 10
73.6497879691
 20
179.8362753292
 10
72.1313298411
 20
178.3848798772
 10
70.6452519364
 20
176.9644341369
 10
69.9661091633
 20
176.3152762254
 10
69.9661091633
 20
174.3665358921
 10
69.9661091633
 20
171.0555351277
 10
69.9661091633
 20
167.7445343633
 10
69.9661091633
 20
164.433533599
 10
69.9661091633
 20
161.1225328346
 10
69.9661091633
 20
157.8115320702
 10
69.9661091633
 20
154.5005350312
 10
69.9661091633
 20
151.1895342668
 10
69.9661091633
 20
147.8785335024
 10
69.9661091633
 20
144.567532738
 10
69.9661091633
 20
141.2565338363
 10
69.9661091633
 20
137.945533072
 10
69.9661091633
 20
134.6345341702
 10
69.9661091633
 20
131.3235343372
 10
69.9661091633
 20
128.0125345041
 10
69.9661091633
 20
124.7015342054
 10
69.9661091633
 20
121.3905343724
 10
69.9661091633
 20
118.0795345393
 10
69.9661091633
 20
114.7685347063
 10
69.9661091633
 20
111.4575344076
 10
69.9661091633
 20
108.1465345745
 10
69.9661091633
 20
104.8355347415
 10
69.9661091633
 20
101.5245358398
 10
69.9661091633
 20
98.2135350754
 10
69.9661091633
 20
94.9025361737
 10
69.9661091633
 20
91.5915354093
 10
69.9661091633
 20
88.2805346449
 10
69.9661091633
 20
84.9695338805
 10
69.9661091633
 20
81.6585368415
 10
69.9661091633
 20
78.3475360771
 10
69.9661091633
 20
75.0365353127
 10
69.9661091633
 20
71.7255345484
 10
69.9661091633
 20
68.414533784
 10
69.9661091633
 20
65.1035330196
 10
69.9661091633
 20
64.2820692559
 10
69.9688435264
 20
64.0843159457
 10
69.977065242
 20
63.8869426151
 10
69.9907631345
 20
63.6901206275
 10
70.0099223025
 20
63.4939840933
 10
70.0345352955
 20
63.2986857494
 10
70.0349972315
 20
63.2954000433
 10
70.0350046821
 20
63.2953329881
 10
70.06513483
 20
63.1010479232
 10
70.1006703741
 20
62.9079065223
 10
70.1415926881
 20
62.716054072
 10
70.187853343
 20
62.5256321331
 10
70.2394337125
 20
62.3367934426
 10
70.2403464086
 20
62.3336269458
 10
70.2403575845
 20
62.3336008688
 10
70.2972986467
 20
62.14651679
 10
70.2987924881
 20
62.1418564518
 10
70.3610905177
 20
61.9566946228
 10
70.4285704262
 20
61.773563077
 10
70.5011763341
 20
61.5925810238
 10
70.5781929858
 20
61.4153615137
 10
70.5782190628
 20
61.4153093596
 10
70.6608720786
 20
61.2390435239
 10
70.7484760053
 20
61.0653444131
 10
70.8409637875
 20
60.8943424125
 10
70.9382646448
 20
60.7261790832
 10
71.0403040714
 20
60.5609736343
 10
71.0420586831
 20
60.5582318207
 10
71.0420773096
 20
60.558198293
 10
71.1488515801
 20
60.3961369892
 10
71.2602079577
 20
60.237279435
 10
71.2699607677
 20
60.2238199611
 10
71.3861823745
 20
60.068594565
 10
71.506803549
 20
59.9168411394
 10
71.6229916282
 20
59.7787409027
 10
71.6229953534
 20
59.7787297269
 10
71.751841969
 20
59.6339947482
 10
71.8847975798
 20
59.4930483897
 10
72.0217653282
 20
59.3560135861
 10
72.1626409061
 20
59.2229946454
 10
72.3073162801
 20
59.0940809747
 10
72.3098010487
 20
59.0919240316
 10
72.3098122246
 20
59.0919203063
 10
72.458238966
 20
58.9672944446
 10
72.6102345354
 20
58.8469750186
 10
72.754891283
 20
58.7388894459
 10
72.9134582646
 20
58.6271456381
 10
73.0752513475
 20
58.5199764868
 10
73.0892696149
 20
58.5110059877
 10
73.0893031425
 20
58.5109873613
 10
73.254452712
 20
58.4088697036
 10
73.4225676126
 20
58.3114906152
 10
73.5935211844
 20
58.2189171513
 10
73.7671718664
 20
58.1312349935
 10
73.9434004493
 20
58.048496296
 10
73.9463806815
 20
58.0471477409
 10
73.9464328356
 20
58.0471216639
 10
74.1251350112
 20
57.9694828888
 10
74.3061319656
 20
57.8969179591
 10
74.4892858631
 20
57.8294827541
 10
74.6729277737
 20
57.7677211662
 10
74.8599559731
 20
57.7106497188
 10
74.8646721907
 20
57.7092862626
 10
74.8646982677
 20
57.7092750867
 10
75.0535071559
 20
57.6576090356
 10
75.2439030177
 20
57.6112515231
 10
75.4357331164
 20
57.5702435275
 10
75.628859616
 20
57.5346185764
 10
75.8231260545
 20
57.5043952962
 10
75.82640431
 20
57.5039333602
 10
75.8264713652
 20
57.5039259096
 10
76.0217473574
 20
57.4792235096
 10
76.2178727157
 20
57.4599712094
 10
76.414690978
 20
57.44618391
 10
76.6120494075
 20
57.4378727873
 10
76.8097952671
 20
57.4350378414
 10
76.8131405778
 20
57.4350378414
 10
77.6346043415
 20
57.4350378414
 10
80.9456051059
 20
57.4350378414
 10
84.2566058702
 20
57.4350378414
 10
87.5676066346
 20
57.4350378414
 10
90.878607399
 20
57.4350378414
 10
94.1896081633
 20
57.4350378414
 10
97.5006052024
 20
57.4350378414
 10
100.8116059668
 20
57.4350378414
 10
104.1226067312
 20
57.4350378414
 10
107.4336074955
 20
57.4350378414
 10
110.7446063973
 20
57.4350378414
 10
114.0556071616
 20
57.4350378414
 10
117.3666060634
 20
57.4350378414
 10
120.6776058964
 20
57.4350378414
 10
123.9886057294
 20
57.4350378414
 10
127.2996060282
 20
57.4350378414
 10
130.6106058612
 20
57.4350378414
 10
133.9216056943
 20
57.4350378414
 10
137.2326055273
 20
57.4350378414
 10
140.543605826
 20
57.4350378414
 10
143.8546056591
 20
57.4350378414
 10
147.1656054921
 20
57.4350378414
 10
150.4766043938
 20
57.4350378414
 10
153.7876051582
 20
57.4350378414
 10
157.0986040599
 20
57.4350378414
 10
160.4096048243
 20
57.4350378414
 10
163.7206055887
 20
57.4350378414
 10
167.031606353
 20
57.4350378414
 10
170.3426033921
 20
57.4350378414
 10
173.6536041565
 20
57.4350378414
 10
176.9646049209
 20
57.4350378414
 10
180.2756056852
 20
57.4350378414
 10
183.5866064496
 20
57.4350378414
 10
186.897607214
 20
57.4350378414
 10
187.7190709777
 20
57.4350378414
 10
187.9168242879
 20
57.4377722045
 10
188.1141976185
 20
57.4459939202
 10
188.3110196061
 20
57.4596918126
 10
188.5071561403
 20
57.4788509806
 10
188.7024544842
 20
57.5034639736
 10
188.7057401903
 20
57.5039259096
 10
188.7058072455
 20
57.5039333602
 10
188.9000923104
 20
57.5340635081
 10
189.0932337112
 20
57.5695990523
 10
189.2850861616
 20
57.6105213662
 10
189.4755081005
 20
57.6567820211
 10
189.664346791
 20
57.7083623906
 10
189.6675132878
 20
57.7092750867
 10
189.6675393648
 20
57.7092862626
 10
189.8546234436
 20
57.7662273248
 10
189.8592837818
 20
57.7677211662
 10
190.0444456107
 20
57.8300191959
 10
190.2275771565
 20
57.8974991043
 10
190.4085592098
 20
57.9701050123
 10
190.5857787199
 20
58.0471216639
 10
190.585830874
 20
58.0471477409
 10
190.7620967097
 20
58.1298007568
 10
190.9357958205
 20
58.2174046834
 10
191.106797821
 20
58.3098924657
 10
191.2749611504
 20
58.407193323
 10
191.4401665993
 20
58.5092327495
 10
191.4429084129
 20
58.5109873613
 10
191.4429419405
 20
58.5110059877
 10
191.6050032444
 20
58.6177802583
 10
191.7638607986
 20
58.7291366359
 10
191.7773202724
 20
58.7388894459
 10
191.9325456686
 20
58.8551110526
 10
192.0842990942
 20
58.9757322272
 10
192.2223993308
 20
59.0919203063
 10
192.2224105067
 20
59.0919240316
 10
192.3671454854
 20
59.2207706471
 10
192.5080918438
 20
59.3537262579
 10
192.6451266475
 20
59.4906940063
 10
192.7781455881
 20
59.6315695842
 10
192.9070592589
 20
59.7762449582
 10
192.909216202
 20
59.7787297269
 10
192.9092199273
 20
59.7787409027
 10
193.0338457889
 20
59.9271676441
 10
193.154165215
 20
60.0791632136
 10
193.2622507877
 20
60.2238199611
 10
193.3739945955
 20
60.3823869427
 10
193.4811637468
 20
60.5441800257
 10
193.4901342459
 20
60.558198293
 10
193.4901528723
 20
60.5582318207
 10
193.59227053
 20
60.7233813902
 10
193.6896496184
 20
60.8914962908
 10
193.7822230823
 20
61.0624498626
 10
193.86990524
 20
61.2361005445
 10
193.9526439376
 20
61.4123291274
 10
193.9539924927
 20
61.4153093596
 10
193.9540185697
 20
61.4153615137
 10
194.0316573448
 20
61.5940636893
 10
194.1042222745
 20
61.7750606437
 10
194.1716574795
 20
61.9582145413
 10
194.2334190674
 20
62.1418564518
 10
194.2904905147
 20
62.3288846513
 10
194.291853971
 20
62.3336008688
 10
194.2918651469
 20
62.3336269458
 10
194.343531198
 20
62.522435834
 10
194.3898887105
 20
62.7128316959
 10
194.4308967061
 20
62.9046617945
 10
194.4665216572
 20
63.0977882942
 10
194.4967449374
 20
63.2920547326
 10
194.4972068734
 20
63.2953329881
 10
194.497214324
 20
63.2954000433
 10
194.521916724
 20
63.4906760355
 10
194.5411690242
 20
63.6868013938
 10
194.5549563236
 20
63.8836196562
 10
194.5632674463
 20
64.0809780856
 10
194.5661023922
 20
64.2787239452
 10
194.5661023922
 20
64.2820692559
 10
194.5661023922
 20
65.1035330196
 10
194.5661023922
 20
68.414533784
 10
194.5661023922
 20
71.7255345484
 10
194.5661023922
 20
75.0365353127
 10
194.5661023922
 20
78.3475360771
 10
194.5661023922
 20
81.6585368415
 10
194.5661023922
 20
84.9695338805
 10
194.5661023922
 20
88.2805346449
 10
194.5661023922
 20
91.5915354093
 10
194.5661023922
 20
94.9025361737
 10
194.5661023922
 20
98.2135350754
 10
194.5661023922
 20
101.5245358398
 10
194.5661023922
 20
104.8355347415
 10
194.5661023922
 20
108.1465345745
 10
194.5661023922
 20
111.4575344076
 10
194.5661023922
 20
114.7685347063
 10
194.5661023922
 20
118.0795345393
 10
194.5661023922
 20
121.3905343724
 10
194.5661023922
 20
124.7015342054
 10
194.5661023922
 20
128.0125345041
 10
194.5661023922
 20
131.3235343372
 10
194.5661023922
 20
134.6345341702
 10
194.5661023922
 20
137.945533072
 10
194.5661023922
 20
141.2565338363
 10
194.5661023922
 20
144.567532738
 10
194.5661023922
 20
147.8785335024
 10
194.5661023922
 20
151.1895342668
 10
194.5661023922
 20
154.5005350312
 10
194.5661023922
 20
157.8115320702
 10
194.5661023922
 20
161.1225328346
 10
194.5661023922
 20
164.433533599
 10
194.5661023922
 20
167.7445343633
 10
194.5661023922
 20
171.0555351277
 10
194.5661023922
 20
174.3665358921
 10
194.5661023922
 20
175.1879996558
 10
194.5633680291
 20
175.385752966
 10
194.5551463134
 20
175.5831262966
 10
194.541448421
 20
175.7799482842
 10
194.522289253
 20
175.9760848184
 10
194.49767626
 20
176.1713831623
 10
194.497214324
 20
176.1746688684
 10
194.4972068734
 20
176.1747359236
 10
194.4670767255
 20
176.3690209885
 10
194.4315411813
 20
176.5621623894
 10
194.3906188674
 20
176.7540148397
 10
194.3443582125
 20
176.9444367786
 10
194.292777843
 20
177.1332754691
 10
194.2918651469
 20
177.1364419659
 10
194.291853971
 20
177.1364680429
 10
194.2349129088
 20
177.3235521217
 10
194.2334190674
 20
177.3282124599
 10
194.1711210377
 20
177.5133742889
 10
194.1036411292
 20
177.6965058347
 10
194.0310352213
 20
177.8774878879
 10
193.9540185697
 20
178.054707398
 10
193.9539924927
 20
178.0547595521
 10
193.8713394768
 20
178.2310253878
 10
193.7837355502
 20
178.4047244986
 10
193.6912477679
 20
178.5757264992
 10
193.5939469106
 20
178.7438898285
 10
193.491907484
 20
178.9090952774
 10
193.4901528723
 20
178.911837091
 10
193.4901342459
 20
178.9118706187
 10
193.3833599753
 20
179.0739319225
 10
193.2720035977
 20
179.2327894767
 10
193.2622507877
 20
179.2462489506
 10
193.146029181
 20
179.4014743467
 10
193.0254080064
 20
179.5532277723
 10
192.9092199273
 20
179.691328009
 10
192.909216202
 20
179.6913391848
 10
192.7803695865
 20
179.8360741635
 10
192.6474139757
 20
179.977020522
 10
192.5104462273
 20
180.1140553256
 10
192.3695706494
 20
180.2470742663
 10
192.2248952753
 20
180.375987937
 10
192.2224105067
 20
180.3781448801
 10
192.2223993308
 20
180.3781486054
 10
192.0739725895
 20
180.5027744671
 10
191.92197702
 20
180.6230938931
 10
191.7773202724
 20
180.7311794658
 10
191.6187532909
 20
180.8429232736
 10
191.4569602079
 20
180.9500924249
 10
191.4429419405
 20
180.959062924
 10
191.4429084129
 20
180.9590815504
 10
191.2777588434
 20
181.0611992081
 10
191.1096439428
 20
181.1585782965
 10
190.938690371
 20
181.2511517604
 10
190.7650396891
 20
181.3388339182
 10
190.5888111062
 20
181.4215726157
 10
190.585830874
 20
181.4229211708
 10
190.5857787199
 20
181.4229472478
 10
190.4070765443
 20
181.5005860229
 10
190.2260795898
 20
181.5731509527
 10
190.0429256923
 20
181.6405861576
 10
189.8592837818
 20
181.7023477455
 10
189.6722555823
 20
181.7594191929
 10
189.6675393648
 20
181.7607826491
 10
189.6675132878
 20
181.760793825
 10
189.4787043996
 20
181.8124598761
 10
189.2883085377
 20
181.8588173886
 10
189.0964784391
 20
181.8998253842
 10
188.9033519394
 20
181.9354503353
 10
188.7090855009
 20
181.9656736155
 10
188.7058072455
 20
181.9661355515
 10
188.7057401903
 20
181.9661430021
 10
188.5104641981
 20
181.9908454021
 10
188.3143388398
 20
182.0100977023
 10
188.1175205774
 20
182.0238850017
 10
187.920162148
 20
182.0321961244
 10
187.7224162884
 20
182.0350310703
  0
LINE
  5
125
330
1F
100
AcDbEntity
  8
0
  6
Continuous
 62
     7
370
    15
100
AcDbLine
 10
166.4786056347
 20
63.0350320538
 30
0.0
 11
163.5036074288
 21
63.0350320538
 31
0.0
  0
LINE
  5
126
330
1F
100
AcDbEntity
  8
0
  6
Continuous
 62
     7
370
    15
100
AcDbLine
 10
163.5036074288
 20
63.0350320538
 30
0.0
 11
167.031606353
 21
57.4350378414
 31
0.0
  0
LINE
  5
127
330
1F
100
AcDbEntity
  8
0
  6
Continuous
 62
     7
370
    15
100
AcDbLine
 10
163.7206055887
 20
57.4350378414
 30
0.0
 11
160.5286054976
 21
63.0350320538
 31
0.0
  0
LINE
  5
128
330
1F
100
AcDbEntity
  8
0
  6
Continuous
 62
     7
370
    15
100
AcDbLine
 10
160.5286054976
 20
63.0350320538
 30
0.0
 11
157.553605429
 21
63.0350320538
 31
0.0
  0
LINE
  5
129
330
1F
100
AcDbEntity
  8
0
  6
Continuous
 62
     7
370
    15
100
AcDbLine
 10
157.553605429
 20
63.0350320538
 30
0.0
 11
160.4096048243
 21
57.4350378414
 31
0.0
  0
LINE
  5
12A
330
1F
100
AcDbEntity
  8
0
  6
Continuous
 62
     7
370
    15
100
AcDbLine
 10
157.0986040599
 20
57.4350378414
 30
0.0
 11
154.5786053605
 21
63.0350320538
 31
0.0
  0
LINE
  5
12B
330
1F
100
AcDbEntity
  8
0
  6
Continuous
 62
     7
370
    15
100
AcDbLine
 10
154.5786053605
 20
63.0350320538
 30
0.0
 11
151.603605292
 21
63.0350320538
 31
0.0
  0
LINE
  5
12C
330
1F
100
AcDbEntity
  8
0
  6
Continuous
 62
     7
370
    15
100
AcDbLine
 10
151.603605292
 20
63.0350320538
 30
0.0
 11
153.7876051582
 21
57.4350378414
 31
0.0
  0
LINE
  5
12D
330
1F
100
AcDbEntity
  8
0
  6
Continuous
 62
     7
370
    15
100
AcDbLine
 10
150.4766043938
 20
57.4350378414
 30
0.0
 11
148.6286052234
 21
63.0350320538
 31
0.0
  0
LINE
  5
12E
330
1F
100
AcDbEntity
  8
0
  6
Continuous
 62
     7
370
    15
100
AcDbLine
 10
148.6286052234
 20
63.0350320538
 30
0.0
 11
145.6536060862
 21
63.0350320538
 31
0.0
  0
LINE
  5
12F
330
1F
100
AcDbEntity
  8
0
  6
Continuous
 62
     7
370
    15
100
AcDbLine
 10
145.6536060862
 20
63.0350320538
 30
0.0
 11
147.1656054921
 21
57.4350378414
 31
0.0
  0
LINE
  5
130
330
1F
100
AcDbEntity
  8
0
  6
Continuous
 62
     7
370
    15
100
AcDbLine
 10
143.8546056591
 20
57.4350378414
 30
0.0
 11
142.6786060176
 21
63.0350320538
 31
0.0
  0
LINE
  5
131
330
1F
100
AcDbEntity
  8
0
  6
Continuous
 62
     7
370
    15
100
AcDbLine
 10
142.6786060176
 20
63.0350320538
 30
0.0
 11
139.7036059491
 21
63.0350320538
 31
0.0
  0
LINE
  5
132
330
1F
100
AcDbEntity
  8
0
  6
Continuous
 62
     7
370
    15
100
AcDbLine
 10
139.7036059491
 20
63.0350320538
 30
0.0
 11
140.543605826
 21
57.4350378414
 31
0.0
  0
LINE
  5
133
330
1F
100
AcDbEntity
  8
0
  6
Continuous
 62
     7
370
    15
100
AcDbLine
 10
137.2326055273
 20
57.4350378414
 30
0.0
 11
136.7286058805
 21
63.0350320538
 31
0.0
  0
LINE
  5
134
330
1F
100
AcDbEntity
  8
0
  6
Continuous
 62
     7
370
    15
100
AcDbLine
 10
136.7286058805
 20
63.0350320538
 30
0.0
 11
133.753605812
 21
63.0350320538
 31
0.0
  0
LINE
  5
135
330
1F
100
AcDbEntity
  8
0
  6
Continuous
 62
     7
370
    15
100
AcDbLine
 10
133.753605812
 20
63.0350320538
 30
0.0
 11
133.9216056943
 21
57.4350378414
 31
0.0
  0
LINE
  5
136
330
1F
100
AcDbEntity
  8
0
  6
Continuous
 62
     7
370
    15
100
AcDbLine
 10
130.6106058612
 20
57.4350378414
 30
0.0
 11
130.7786057435
 21
63.0350320538
 31
0.0
  0
LINE
  5
137
330
1F
100
AcDbEntity
  8
0
  6
Continuous
 62
     7
370
    15
100
AcDbLine
 10
130.7786057435
 20
63.0350320538
 30
0.0
 11
127.8036056749
 21
63.0350320538
 31
0.0
  0
LINE
  5
138
330
1F
100
AcDbEntity
  8
0
  6
Continuous
 62
     7
370
    15
100
AcDbLine
 10
127.8036056749
 20
63.0350320538
 30
0.0
 11
127.2996060282
 21
57.4350378414
 31
0.0
  0
LINE
  5
139
330
1F
100
AcDbEntity
  8
0
  6
Continuous
 62
     7
370
    15
100
AcDbLine
 10
123.9886057294
 20
57.4350378414
 30
0.0
 11
124.8286056064
 21
63.0350320538
 31
0.0
  0
LINE
  5
13A
330
1F
100
AcDbEntity
  8
0
  6
Continuous
 62
     7
370
    15
100
AcDbLine
 10
124.8286056064
 20
63.0350320538
 30
0.0
 11
121.8536055378
 21
63.0350320538
 31
0.0
  0
LINE
  5
13B
330
1F
100
AcDbEntity
  8
0
  6
Continuous
 62
     7
370
    15
100
AcDbLine
 10
121.8536055378
 20
63.0350320538
 30
0.0
 11
120.6776058964
 21
57.4350378414
 31
0.0
  0
LINE
  5
13C
330
1F
100
AcDbEntity
  8
0
  6
Continuous
 62
     7
370
    15
100
AcDbLine
 10
117.3666060634
 20
57.4350378414
 30
0.0
 11
118.8786054693
 21
63.0350320538
 31
0.0
  0
LINE
  5
13D
330
1F
100
AcDbEntity
  8
0
  6
Continuous
 62
     7
370
    15
100
AcDbLine
 10
118.8786054693
 20
63.0350320538
 30
0.0
 11
115.9036063321
 21
63.0350320538
 31
0.0
  0
LINE
  5
13E
330
1F
100
AcDbEntity
  8
0
  6
Continuous
 62
     7
370
    15
100
AcDbLine
 10
115.9036063321
 20
63.0350320538
 30
0.0
 11
114.0556071616
 21
57.4350378414
 31
0.0
  0
LINE
  5
13F
330
1F
100
AcDbEntity
  8
0
  6
Continuous
 62
     7
370
    15
100
AcDbLine
 10
110.7446063973
 20
57.4350378414
 30
0.0
 11
112.9286062635
 21
63.0350320538
 31
0.0
  0
LINE
  5
140
330
1F
100
AcDbEntity
  8
0
  6
Continuous
 62
     7
370
    15
100
AcDbLine
 10
112.9286062635
 20
63.0350320538
 30
0.0
 11
109.953606195
 21
63.0350320538
 31
0.0
  0
LINE
  5
141
330
1F
100
AcDbEntity
  8
0
  6
Continuous
 62
     7
370
    15
100
AcDbLine
 10
109.953606195
 20
63.0350320538
 30
0.0
 11
107.4336074955
 21
57.4350378414
 31
0.0
  0
LINE
  5
142
330
1F
100
AcDbEntity
  8
0
  6
Continuous
 62
     7
370
    15
100
AcDbLine
 10
104.1226067312
 20
57.4350378414
 30
0.0
 11
106.9786061264
 21
63.0350320538
 31
0.0
  0
LINE
  5
143
330
1F
100
AcDbEntity
  8
0
  6
Continuous
 62
     7
370
    15
100
AcDbLine
 10
106.9786061264
 20
63.0350320538
 30
0.0
 11
104.0036060579
 21
63.0350320538
 31
0.0
  0
LINE
  5
144
330
1F
100
AcDbEntity
  8
0
  6
Continuous
 62
     7
370
    15
100
AcDbLine
 10
104.0036060579
 20
63.0350320538
 30
0.0
 11
100.8116059668
 21
57.4350378414
 31
0.0
  0
LINE
  5
145
330
1F
100
AcDbEntity
  8
0
  6
Continuous
 62
     7
370
    15
100
AcDbLine
 10
97.5006052024
 20
57.4350378414
 30
0.0
 11
101.0286041267
 21
63.0350320538
 31
0.0
  0
LINE
  5
146
330
1F
100
AcDbEntity
  8
0
  6
Continuous
 62
     7
370
    15
100
AcDbLine
 10
101.0286041267
 20
63.0350320538
 30
0.0
 11
98.0536059208
 21
63.0350320538
 31
0.0
  0
LINE
  5
147
330
1F
100
AcDbEntity
  8
0
  6
Continuous
 62
     7
370
    15
100
AcDbLine
 10
98.0536059208
 20
63.0350320538
 30
0.0
 11
94.1896081633
 21
57.4350378414
 31
0.0
  0
LINE
  5
148
330
1F
100
AcDbEntity
  8
0
  6
Continuous
 62
     7
370
    15
100
AcDbLine
 10
90.878607399
 20
57.4350378414
 30
0.0
 11
95.0786039896
 21
63.0350320538
 31
0.0
  0
LINE
  5
149
330
1F
100
AcDbEntity
  8
0
  6
Continuous
 62
     7
370
    15
100
AcDbLine
 10
95.0786039896
 20
63.0350320538
 30
0.0
 11
92.1036057837
 21
63.0350320538
 31
0.0
  0
LINE
  5
14A
330
1F
100
AcDbEntity
  8
0
  6
Continuous
 62
     7
370
    15
100
AcDbLine
 10
92.1036057837
 20
63.0350320538
 30
0.0
 11
87.5676066346
 21
57.4350378414
 31
0.0
  0
LINE
  5
14B
330
1F
100
AcDbEntity
  8
0
  6
Continuous
 62
     7
370
    15
100
AcDbLine
 10
84.2566058702
 20
57.4350378414
 30
0.0
 11
89.1286075778
 21
63.0350320538
 31
0.0
  0
LINE
  5
14C
330
1F
100
AcDbEntity
  8
0
  6
Continuous
 62
     7
370
    15
100
AcDbLine
 10
89.1286075778
 20
63.0350320538
 30
0.0
 11
86.1536056466
 21
63.0350320538
 31
0.0
  0
LINE
  5
14D
330
1F
100
AcDbEntity
  8
0
  6
Continuous
 62
     7
370
    15
100
AcDbLine
 10
86.1536056466
 20
63.0350320538
 30
0.0
 11
80.9456051059
 21
57.4350378414
 31
0.0
  0
LINE
  5
14E
330
1F
100
AcDbEntity
  8
0
  6
Continuous
 62
     7
370
    15
100
AcDbLine
 10
77.6346043415
 20
57.4350378414
 30
0.0
 11
83.1786074407
 21
63.0350320538
 31
0.0
  0
LINE
  5
14F
330
1F
100
AcDbEntity
  8
0
  6
Continuous
 62
     7
370
    15
100
AcDbLine
 10
83.1786074407
 20
63.0350320538
 30
0.0
 11
80.2036055095
 21
63.0350320538
 31
0.0
  0
LINE
  5
150
330
1F
100
AcDbEntity
  8
0
  6
Continuous
 62
     7
370
    15
100
AcDbLine
 10
80.2036055095
 20
63.0350320538
 30
0.0
 11
74.6729277737
 21
57.7677211662
 31
0.0
  0
LINE
  5
151
330
1F
100
AcDbEntity
  8
0
  6
Continuous
 62
     7
370
    15
100
AcDbLine
 10
70.2987924881
 20
62.1418564518
 30
0.0
 11
75.5661033757
 21
67.6725341876
 31
0.0
  0
LINE
  5
152
330
1F
100
AcDbEntity
  8
0
  6
Continuous
 62
     7
370
    15
100
AcDbLine
 10
75.5661033757
 20
67.6725341876
 30
0.0
 11
75.5661033757
 21
70.6475361188
 31
0.0
  0
LINE
  5
153
330
1F
100
AcDbEntity
  8
0
  6
Continuous
 62
     7
370
    15
100
AcDbLine
 10
75.5661033757
 20
70.6475361188
 30
0.0
 11
69.9661091633
 21
65.1035330196
 31
0.0
  0
LINE
  5
154
330
1F
100
AcDbEntity
  8
0
  6
Continuous
 62
     7
370
    15
100
AcDbLine
 10
69.9661091633
 20
68.414533784
 30
0.0
 11
75.5661033757
 21
73.6225343247
 31
0.0
  0
LINE
  5
155
330
1F
100
AcDbEntity
  8
0
  6
Continuous
 62
     7
370
    15
100
AcDbLine
 10
75.5661033757
 20
73.6225343247
 30
0.0
 11
75.5661033757
 21
76.5975362559
 31
0.0
  0
LINE
  5
156
330
1F
100
AcDbEntity
  8
0
  6
Continuous
 62
     7
370
    15
100
AcDbLine
 10
75.5661033757
 20
76.5975362559
 30
0.0
 11
69.9661091633
 21
71.7255345484
 31
0.0
  0
LINE
  5
157
330
1F
100
AcDbEntity
  8
0
  6
Continuous
 62
     7
370
    15
100
AcDbLine
 10
69.9661091633
 20
75.0365353127
 30
0.0
 11
75.5661033757
 21
79.5725344618
 31
0.0
  0
LINE
  5
158
330
1F
100
AcDbEntity
  8
0
  6
Continuous
 62
     7
370
    15
100
AcDbLine
 10
75.5661033757
 20
79.5725344618
 30
0.0
 11
75.5661033757
 21
82.5475326677
 31
0.0
  0
LINE
  5
159
330
1F
100
AcDbEntity
  8
0
  6
Continuous
 62
     7
370
    15
100
AcDbLine
 10
75.5661033757
 20
82.5475326677
 30
0.0
 11
69.9661091633
 21
78.3475360771
 31
0.0
  0
LINE
  5
15A
330
1F
100
AcDbEntity
  8
0
  6
Continuous
 62
     7
370
    15
100
AcDbLine
 10
69.9661091633
 20
81.6585368415
 30
0.0
 11
75.5661033757
 21
85.5225345989
 31
0.0
  0
LINE
  5
15B
330
1F
100
AcDbEntity
  8
0
  6
Continuous
 62
     7
370
    15
100
AcDbLine
 10
75.5661033757
 20
85.5225345989
 30
0.0
 11
75.5661033757
 21
88.4975328048
 31
0.0
  0
LINE
  5
15C
330
1F
100
AcDbEntity
  8
0
  6
Continuous
 62
     7
370
    15
100
AcDbLine
 10
75.5661033757
 20
88.4975328048
 30
0.0
 11
69.9661091633
 21
84.9695338805
 31
0.0
  0
LINE
  5
15D
330
1F
100
AcDbEntity
  8
0
  6
Continuous
 62
     7
370
    15
100
AcDbLine
 10
69.9661091633
 20
88.2805346449
 30
0.0
 11
75.5661033757
 21
91.472534736
 31
0.0
  0
LINE
  5
15E
330
1F
100
AcDbEntity
  8
0
  6
Continuous
 62
     7
370
    15
100
AcDbLine
 10
75.5661033757
 20
91.472534736
 30
0.0
 11
75.5661033757
 21
94.4475348045
 31
0.0
  0
LINE
  5
15F
330
1F
100
AcDbEntity
  8
0
  6
Continuous
 62
     7
370
    15
100
AcDbLine
 10
75.5661033757
 20
94.4475348045
 30
0.0
 11
69.9661091633
 21
91.5915354093
 31
0.0
  0
LINE
  5
160
330
1F
100
AcDbEntity
  8
0
  6
Continuous
 62
     7
370
    15
100
AcDbLine
 10
69.9661091633
 20
94.9025361737
 30
0.0
 11
75.5661033757
 21
97.4225348731
 31
0.0
  0
LINE
  5
161
330
1F
100
AcDbEntity
  8
0
  6
Continuous
 62
     7
370
    15
100
AcDbLine
 10
75.5661033757
 20
97.4225348731
 30
0.0
 11
75.5661033757
 21
100.3975349416
 31
0.0
  0
LINE
  5
162
330
1F
100
AcDbEntity
  8
0
  6
Continuous
 62
     7
370
    15
100
AcDbLine
 10
75.5661033757
 20
100.3975349416
 30
0.0
 11
69.9661091633
 21
98.2135350754
 31
0.0
  0
LINE
  5
163
330
1F
100
AcDbEntity
  8
0
  6
Continuous
 62
     7
370
    15
100
AcDbLine
 10
69.9661091633
 20
101.5245358398
 30
0.0
 11
75.5661033757
 21
103.3725350102
 31
0.0
  0
LINE
  5
164
330
1F
100
AcDbEntity
  8
0
  6
Continuous
 62
     7
370
    15
100
AcDbLine
 10
75.5661033757
 20
103.3725350102
 30
0.0
 11
75.5661033757
 21
106.3475341474
 31
0.0
  0
LINE
  5
165
330
1F
100
AcDbEntity
  8
0
  6
Continuous
 62
     7
370
    15
100
AcDbLine
 10
75.5661033757
 20
106.3475341474
 30
0.0
 11
69.9661091633
 21
104.8355347415
 31
0.0
  0
LINE
  5
166
330
1F
100
AcDbEntity
  8
0
  6
Continuous
 62
     7
370
    15
100
AcDbLine
 10
69.9661091633
 20
108.1465345745
 30
0.0
 11
75.5661033757
 21
109.3225342159
 31
0.0
  0
LINE
  5
167
330
1F
100
AcDbEntity
  8
0
  6
Continuous
 62
     7
370
    15
100
AcDbLine
 10
75.5661033757
 20
109.3225342159
 30
0.0
 11
75.5661033757
 21
112.2975342845
 31
0.0
  0
LINE
  5
168
330
1F
100
AcDbEntity
  8
0
  6
Continuous
 62
     7
370
    15
100
AcDbLine
 10
75.5661033757
 20
112.2975342845
 30
0.0
 11
69.9661091633
 21
111.4575344076
 31
0.0
  0
LINE
  5
169
330
1F
100
AcDbEntity
  8
0
  6
Continuous
 62
     7
370
    15
100
AcDbLine
 10
69.9661091633
 20
114.7685347063
 30
0.0
 11
75.5661033757
 21
115.272534353
 31
0.0
  0
LINE
  5
16A
330
1F
100
AcDbEntity
  8
0
  6
Continuous
 62
     7
370
    15
100
AcDbLine
 10
75.5661033757
 20
115.272534353
 30
0.0
 11
75.5661033757
 21
118.2475344216
 31
0.0
  0
LINE
  5
16B
330
1F
100
AcDbEntity
  8
0
  6
Continuous
 62
     7
370
    15
100
AcDbLine
 10
75.5661033757
 20
118.2475344216
 30
0.0
 11
69.9661091633
 21
118.0795345393
 31
0.0
  0
LINE
  5
16C
330
1F
100
AcDbEntity
  8
0
  6
Continuous
 62
     7
370
    15
100
AcDbLine
 10
69.9661091633
 20
121.3905343724
 30
0.0
 11
75.5661033757
 21
121.2225344901
 31
0.0
  0
LINE
  5
16D
330
1F
100
AcDbEntity
  8
0
  6
Continuous
 62
     7
370
    15
100
AcDbLine
 10
75.5661033757
 20
121.2225344901
 30
0.0
 11
75.5661033757
 21
124.1975345587
 31
0.0
  0
LINE
  5
16E
330
1F
100
AcDbEntity
  8
0
  6
Continuous
 62
     7
370
    15
100
AcDbLine
 10
75.5661033757
 20
124.1975345587
 30
0.0
 11
69.9661091633
 21
124.7015342054
 31
0.0
  0
LINE
  5
16F
330
1F
100
AcDbEntity
  8
0
  6
Continuous
 62
     7
370
    15
100
AcDbLine
 10
69.9661091633
 20
128.0125345041
 30
0.0
 11
75.5661033757
 21
127.1725346272
 31
0.0
  0
LINE
  5
170
330
1F
100
AcDbEntity
  8
0
  6
Continuous
 62
     7
370
    15
100
AcDbLine
 10
75.5661033757
 20
127.1725346272
 30
0.0
 11
75.5661033757
 21
130.1475346958
 31
0.0
  0
LINE
  5
171
330
1F
100
AcDbEntity
  8
0
  6
Continuous
 62
     7
370
    15
100
AcDbLine
 10
75.5661033757
 20
130.1475346958
 30
0.0
 11
69.9661091633
 21
131.3235343372
 31
0.0
  0
LINE
  5
172
330
1F
100
AcDbEntity
  8
0
  6
Continuous
 62
     7
370
    15
100
AcDbLine
 10
69.9661091633
 20
134.6345341702
 30
0.0
 11
75.5661033757
 21
133.1225347643
 31
0.0
  0
LINE
  5
173
330
1F
100
AcDbEntity
  8
0
  6
Continuous
 62
     7
370
    15
100
AcDbLine
 10
75.5661033757
 20
133.1225347643
 30
0.0
 11
75.5661033757
 21
136.0975339015
 31
0.0
  0
LINE
  5
174
330
1F
100
AcDbEntity
  8
0
  6
Continuous
 62
     7
370
    15
100
AcDbLine
 10
75.5661033757
 20
136.0975339015
 30
0.0
 11
69.9661091633
 21
137.945533072
 31
0.0
  0
LINE
  5
175
330
1F
100
AcDbEntity
  8
0
  6
Continuous
 62
     7
370
    15
100
AcDbLine
 10
69.9661091633
 20
141.2565338363
 30
0.0
 11
75.5661033757
 21
139.0725339701
 31
0.0
  0
LINE
  5
176
330
1F
100
AcDbEntity
  8
0
  6
Continuous
 62
     7
370
    15
100
AcDbLine
 10
75.5661033757
 20
139.0725339701
 30
0.0
 11
75.5661033757
 21
142.0475340386
 31
0.0
  0
LINE
  5
177
330
1F
100
AcDbEntity
  8
0
  6
Continuous
 62
     7
370
    15
100
AcDbLine
 10
75.5661033757
 20
142.0475340386
 30
0.0
 11
69.9661091633
 21
144.567532738
 31
0.0
  0
LINE
  5
178
330
1F
100
AcDbEntity
  8
0
  6
Continuous
 62
     7
370
    15
100
AcDbLine
 10
69.9661091633
 20
147.8785335024
 30
0.0
 11
75.5661033757
 21
145.0225341072
 31
0.0
  0
LINE
  5
179
330
1F
100
AcDbEntity
  8
0
  6
Continuous
 62
     7
370
    15
100
AcDbLine
 10
75.5661033757
 20
145.0225341072
 30
0.0
 11
75.5661033757
 21
147.9975341757
 31
0.0
  0
LINE
  5
17A
330
1F
100
AcDbEntity
  8
0
  6
Continuous
 62
     7
370
    15
100
AcDbLine
 10
75.5661033757
 20
147.9975341757
 30
0.0
 11
69.9661091633
 21
151.1895342668
 31
0.0
  0
LINE
  5
17B
330
1F
100
AcDbEntity
  8
0
  6
Continuous
 62
     7
370
    15
100
AcDbLine
 10
69.9661091633
 20
154.5005350312
 30
0.0
 11
75.5661033757
 21
150.9725361069
 31
0.0
  0
LINE
  5
17C
330
1F
100
AcDbEntity
  8
0
  6
Continuous
 62
     7
370
    15
100
AcDbLine
 10
75.5661033757
 20
150.9725361069
 30
0.0
 11
75.5661033757
 21
153.9475343128
 31
0.0
  0
LINE
  5
17D
330
1F
100
AcDbEntity
  8
0
  6
Continuous
 62
     7
370
    15
100
AcDbLine
 10
75.5661033757
 20
153.9475343128
 30
0.0
 11
69.9661091633
 21
157.8115320702
 31
0.0
  0
LINE
  5
17E
330
1F
100
AcDbEntity
  8
0
  6
Continuous
 62
     7
370
    15
100
AcDbLine
 10
69.9661091633
 20
161.1225328346
 30
0.0
 11
75.5661033757
 21
156.922536244
 31
0.0
  0
LINE
  5
17F
330
1F
100
AcDbEntity
  8
0
  6
Continuous
 62
     7
370
    15
100
AcDbLine
 10
75.5661033757
 20
156.922536244
 30
0.0
 11
75.5661033757
 21
159.8975344499
 31
0.0
  0
LINE
  5
180
330
1F
100
AcDbEntity
  8
0
  6
Continuous
 62
     7
370
    15
100
AcDbLine
 10
75.5661033757
 20
159.8975344499
 30
0.0
 11
69.9661091633
 21
164.433533599
 31
0.0
  0
LINE
  5
181
330
1F
100
AcDbEntity
  8
0
  6
Continuous
 62
     7
370
    15
100
AcDbLine
 10
69.9661091633
 20
167.7445343633
 30
0.0
 11
75.5661033757
 21
162.8725326558
 31
0.0
  0
LINE
  5
182
330
1F
100
AcDbEntity
  8
0
  6
Continuous
 62
     7
370
    15
100
AcDbLine
 10
75.5661033757
 20
162.8725326558
 30
0.0
 11
75.5661033757
 21
165.847534587
 31
0.0
  0
LINE
  5
183
330
1F
100
AcDbEntity
  8
0
  6
Continuous
 62
     7
370
    15
100
AcDbLine
 10
75.5661033757
 20
165.847534587
 30
0.0
 11
69.9661091633
 21
171.0555351277
 31
0.0
  0
LINE
  5
184
330
1F
100
AcDbEntity
  8
0
  6
Continuous
 62
     7
370
    15
100
AcDbLine
 10
69.9661091633
 20
174.3665358921
 30
0.0
 11
75.5661033757
 21
168.8225327929
 31
0.0
  0
LINE
  5
185
330
1F
100
AcDbEntity
  8
0
  6
Continuous
 62
     7
370
    15
100
AcDbLine
 10
75.5661033757
 20
168.8225327929
 30
0.0
 11
75.5661033757
 21
171.7975347241
 31
0.0
  0
LINE
  5
186
330
1F
100
AcDbEntity
  8
0
  6
Continuous
 62
     7
370
    15
100
AcDbLine
 10
75.5661033757
 20
171.7975347241
 30
0.0
 11
70.6452519364
 21
176.9644341369
 31
0.0
  0
LINE
  5
187
330
1F
100
AcDbEntity
  8
0
  6
Continuous
 62
     7
370
    15
100
AcDbLine
 10
75.1383431919
 20
181.2590978046
 30
0.0
 11
80.2036055095
 21
176.4350368579
 31
0.0
  0
LINE
  5
188
330
1F
100
AcDbEntity
  8
0
  6
Continuous
 62
     7
370
    15
100
AcDbLine
 10
80.2036055095
 20
176.4350368579
 30
0.0
 11
83.1786074407
 21
176.4350368579
 31
0.0
  0
LINE
  5
189
330
1F
100
AcDbEntity
  8
0
  6
Continuous
 62
     7
370
    15
100
AcDbLine
 10
83.1786074407
 20
176.4350368579
 30
0.0
 11
77.6346043415
 21
182.0350310703
 31
0.0
  0
LINE
  5
18A
330
1F
100
AcDbEntity
  8
0
  6
Continuous
 62
     7
370
    15
100
AcDbLine
 10
80.9456051059
 20
182.0350310703
 30
0.0
 11
86.1536056466
 21
176.4350368579
 31
0.0
  0
LINE
  5
18B
330
1F
100
AcDbEntity
  8
0
  6
Continuous
 62
     7
370
    15
100
AcDbLine
 10
86.1536056466
 20
176.4350368579
 30
0.0
 11
89.1286075778
 21
176.4350368579
 31
0.0
  0
LINE
  5
18C
330
1F
100
AcDbEntity
  8
0
  6
Continuous
 62
     7
370
    15
100
AcDbLine
 10
89.1286075778
 20
176.4350368579
 30
0.0
 11
84.2566058702
 21
182.0350310703
 31
0.0
  0
LINE
  5
18D
330
1F
100
AcDbEntity
  8
0
  6
Continuous
 62
     7
370
    15
100
AcDbLine
 10
87.5676066346
 20
182.0350310703
 30
0.0
 11
92.1036057837
 21
176.4350368579
 31
0.0
  0
LINE
  5
18E
330
1F
100
AcDbEntity
  8
0
  6
Continuous
 62
     7
370
    15
100
AcDbLine
 10
92.1036057837
 20
176.4350368579
 30
0.0
 11
95.0786039896
 21
176.4350368579
 31
0.0
  0
LINE
  5
18F
330
1F
100
AcDbEntity
  8
0
  6
Continuous
 62
     7
370
    15
100
AcDbLine
 10
95.0786039896
 20
176.4350368579
 30
0.0
 11
90.878607399
 21
182.0350310703
 31
0.0
  0
LINE
  5
190
330
1F
100
AcDbEntity
  8
0
  6
Continuous
 62
     7
370
    15
100
AcDbLine
 10
94.1896081633
 20
182.0350310703
 30
0.0
 11
98.0536059208
 21
176.4350368579
 31
0.0
  0
LINE
  5
191
330
1F
100
AcDbEntity
  8
0
  6
Continuous
 62
     7
370
    15
100
AcDbLine
 10
98.0536059208
 20
176.4350368579
 30
0.0
 11
101.0286041267
 21
176.4350368579
 31
0.0
  0
LINE
  5
192
330
1F
100
AcDbEntity
  8
0
  6
Continuous
 62
     7
370
    15
100
AcDbLine
 10
101.0286041267
 20
176.4350368579
 30
0.0
 11
97.5006052024
 21
182.0350310703
 31
0.0
  0
LINE
  5
193
330
1F
100
AcDbEntity
  8
0
  6
Continuous
 62
     7
370
    15
100
AcDbLine
 10
100.8116059668
 20
182.0350310703
 30
0.0
 11
104.0036060579
 21
176.4350368579
 31
0.0
  0
LINE
  5
194
330
1F
100
AcDbEntity
  8
0
  6
Continuous
 62
     7
370
    15
100
AcDbLine
 10
104.0036060579
 20
176.4350368579
 30
0.0
 11
106.9786061264
 21
176.4350368579
 31
0.0
  0
LINE
  5
195
330
1F
100
AcDbEntity
  8
0
  6
Continuous
 62
     7
370
    15
100
AcDbLine
 10
106.9786061264
 20
176.4350368579
 30
0.0
 11
104.1226067312
 21
182.0350310703
 31
0.0
  0
LINE
  5
196
330
1F
100
AcDbEntity
  8
0
  6
Continuous
 62
     7
370
    15
100
AcDbLine
 10
107.4336074955
 20
182.0350310703
 30
0.0
 11
109.953606195
 21
176.4350368579
 31
0.0
  0
LINE
  5
197
330
1F
100
AcDbEntity
  8
0
  6
Continuous
 62
     7
370
    15
100
AcDbLine
 10
109.953606195
 20
176.4350368579
 30
0.0
 11
112.9286062635
 21
176.4350368579
 31
0.0
  0
LINE
  5
198
330
1F
100
AcDbEntity
  8
0
  6
Continuous
 62
     7
370
    15
100
AcDbLine
 10
112.9286062635
 20
176.4350368579
 30
0.0
 11
110.7446063973
 21
182.0350310703
 31
0.0
  0
LINE
  5
199
330
1F
100
AcDbEntity
  8
0
  6
Continuous
 62
     7
370
    15
100
AcDbLine
 10
114.0556071616
 20
182.0350310703
 30
0.0
 11
115.9036063321
 21
176.4350368579
 31
0.0
  0
LINE
  5
19A
330
1F
100
AcDbEntity
  8
0
  6
Continuous
 62
     7
370
    15
100
AcDbLine
 10
115.9036063321
 20
176.4350368579
 30
0.0
 11
118.8786054693
 21
176.4350368579
 31
0.0
  0
LINE
  5
19B
330
1F
100
AcDbEntity
  8
0
  6
Continuous
 62
     7
370
    15
100
AcDbLine
 10
118.8786054693
 20
176.4350368579
 30
0.0
 11
117.3666060634
 21
182.0350310703
 31
0.0
  0
LINE
  5
19C
330
1F
100
AcDbEntity
  8
0
  6
Continuous
 62
     7
370
    15
100
AcDbLine
 10
120.6776058964
 20
182.0350310703
 30
0.0
 11
121.8536055378
 21
176.4350368579
 31
0.0
  0
LINE
  5
19D
330
1F
100
AcDbEntity
  8
0
  6
Continuous
 62
     7
370
    15
100
AcDbLine
 10
121.8536055378
 20
176.4350368579
 30
0.0
 11
124.8286056064
 21
176.4350368579
 31
0.0
  0
LINE
  5
19E
330
1F
100
AcDbEntity
  8
0
  6
Continuous
 62
     7
370
    15
100
AcDbLine
 10
124.8286056064
 20
176.4350368579
 30
0.0
 11
123.9886057294
 21
182.0350310703
 31
0.0
  0
LINE
  5
19F
330
1F
100
AcDbEntity
  8
0
  6
Continuous
 62
     7
370
    15
100
AcDbLine
 10
127.2996060282
 20
182.0350310703
 30
0.0
 11
127.8036056749
 21
176.4350368579
 31
0.0
  0
LINE
  5
1A0
330
1F
100
AcDbEntity
  8
0
  6
Continuous
 62
     7
370
    15
100
AcDbLine
 10
127.8036056749
 20
176.4350368579
 30
0.0
 11
130.7786057435
 21
176.4350368579
 31
0.0
  0
LINE
  5
1A1
330
1F
100
AcDbEntity
  8
0
  6
Continuous
 62
     7
370
    15
100
AcDbLine
 10
130.7786057435
 20
176.4350368579
 30
0.0
 11
130.6106058612
 21
182.0350310703
 31
0.0
  0
LINE
  5
1A2
330
1F
100
AcDbEntity
  8
0
  6
Continuous
 62
     7
370
    15
100
AcDbLine
 10
133.9216056943
 20
182.0350310703
 30
0.0
 11
133.753605812
 21
176.4350368579
 31
0.0
  0
LINE
  5
1A3
330
1F
100
AcDbEntity
  8
0
  6
Continuous
 62
     7
370
    15
100
AcDbLine
 10
133.753605812
 20
176.4350368579
 30
0.0
 11
136.7286058805
 21
176.4350368579
 31
0.0
  0
LINE
  5
1A4
330
1F
100
AcDbEntity
  8
0
  6
Continuous
 62
     7
370
    15
100
AcDbLine
 10
136.7286058805
 20
176.4350368579
 30
0.0
 11
137.2326055273
 21
182.0350310703
 31
0.0
  0
LINE
  5
1A5
330
1F
100
AcDbEntity
  8
0
  6
Continuous
 62
     7
370
    15
100
AcDbLine
 10
140.543605826
 20
182.0350310703
 30
0.0
 11
139.7036059491
 21
176.4350368579
 31
0.0
  0
LINE
  5
1A6
330
1F
100
AcDbEntity
  8
0
  6
Continuous
 62
     7
370
    15
100
AcDbLine
 10
139.7036059491
 20
176.4350368579
 30
0.0
 11
142.6786060176
 21
176.4350368579
 31
0.0
  0
LINE
  5
1A7
330
1F
100
AcDbEntity
  8
0
  6
Continuous
 62
     7
370
    15
100
AcDbLine
 10
142.6786060176
 20
176.4350368579
 30
0.0
 11
143.8546056591
 21
182.0350310703
 31
0.0
  0
LINE
  5
1A8
330
1F
100
AcDbEntity
  8
0
  6
Continuous
 62
     7
370
    15
100
AcDbLine
 10
147.1656054921
 20
182.0350310703
 30
0.0
 11
145.6536060862
 21
176.4350368579
 31
0.0
  0
LINE
  5
1A9
330
1F
100
AcDbEntity
  8
0
  6
Continuous
 62
     7
370
    15
100
AcDbLine
 10
145.6536060862
 20
176.4350368579
 30
0.0
 11
148.6286052234
 21
176.4350368579
 31
0.0
  0
LINE
  5
1AA
330
1F
100
AcDbEntity
  8
0
  6
Continuous
 62
     7
370
    15
100
AcDbLine
 10
148.6286052234
 20
176.4350368579
 30
0.0
 11
150.4766043938
 21
182.0350310703
 31
0.0
  0
LINE
  5
1AB
330
1F
100
AcDbEntity
  8
0
  6
Continuous
 62
     7
370
    15
100
AcDbLine
 10
153.7876051582
 20
182.0350310703
 30
0.0
 11
151.603605292
 21
176.4350368579
 31
0.0
  0
LINE
  5
1AC
330
1F
100
AcDbEntity
  8
0
  6
Continuous
 62
     7
370
    15
100
AcDbLine
 10
151.603605292
 20
176.4350368579
 30
0.0
 11
154.5786053605
 21
176.4350368579
 31
0.0
  0
LINE
  5
1AD
330
1F
100
AcDbEntity
  8
0
  6
Continuous
 62
     7
370
    15
100
AcDbLine
 10
154.5786053605
 20
176.4350368579
 30
0.0
 11
157.0986040599
 21
182.0350310703
 31
0.0
  0
LINE
  5
1AE
330
1F
100
AcDbEntity
  8
0
  6
Continuous
 62
     7
370
    15
100
AcDbLine
 10
160.4096048243
 20
182.0350310703
 30
0.0
 11
157.553605429
 21
176.4350368579
 31
0.0
  0
LINE
  5
1AF
330
1F
100
AcDbEntity
  8
0
  6
Continuous
 62
     7
370
    15
100
AcDbLine
 10
157.553605429
 20
176.4350368579
 30
0.0
 11
160.5286054976
 21
176.4350368579
 31
0.0
  0
LINE
  5
1B0
330
1F
100
AcDbEntity
  8
0
  6
Continuous
 62
     7
370
    15
100
AcDbLine
 10
160.5286054976
 20
176.4350368579
 30
0.0
 11
163.7206055887
 21
182.0350310703
 31
0.0
  0
LINE
  5
1B1
330
1F
100
AcDbEntity
  8
0
  6
Continuous
 62
     7
370
    15
100
AcDbLine
 10
167.031606353
 20
182.0350310703
 30
0.0
 11
163.5036074288
 21
176.4350368579
 31
0.0
  0
LINE
  5
1B2
330
1F
100
AcDbEntity
  8
0
  6
Continuous
 62
     7
370
    15
100
AcDbLine
 10
163.5036074288
 20
176.4350368579
 30
0.0
 11
166.4786056347
 21
176.4350368579
 31
0.0
  0
LINE
  5
1B3
330
1F
100
AcDbEntity
  8
0
  6
Continuous
 62
     7
370
    15
100
AcDbLine
 10
166.4786056347
 20
176.4350368579
 30
0.0
 11
170.3426033921
 21
182.0350310703
 31
0.0
  0
LINE
  5
1B4
330
1F
100
AcDbEntity
  8
0
  6
Continuous
 62
     7
370
    15
100
AcDbLine
 10
173.6536041565
 20
182.0350310703
 30
0.0
 11
169.4536075659
 21
176.4350368579
 31
0.0
  0
LINE
  5
1B5
330
1F
100
AcDbEntity
  8
0
  6
Continuous
 62
     7
370
    15
100
AcDbLine
 10
169.4536075659
 20
176.4350368579
 30
0.0
 11
172.4286057718
 21
176.4350368579
 31
0.0
  0
LINE
  5
1B6
330
1F
100
AcDbEntity
  8
0
  6
Continuous
 62
     7
370
    15
100
AcDbLine
 10
172.4286057718
 20
176.4350368579
 30
0.0
 11
176.9646049209
 21
182.0350310703
 31
0.0
  0
LINE
  5
1B7
330
1F
100
AcDbEntity
  8
0
  6
Continuous
 62
     7
370
    15
100
AcDbLine
 10
180.2756056852
 20
182.0350310703
 30
0.0
 11
175.4036039777
 21
176.4350368579
 31
0.0
  0
LINE
  5
1B8
330
1F
100
AcDbEntity
  8
0
  6
Continuous
 62
     7
370
    15
100
AcDbLine
 10
175.4036039777
 20
176.4350368579
 30
0.0
 11
178.3786059089
 21
176.4350368579
 31
0.0
  0
LINE
  5
1B9
330
1F
100
AcDbEntity
  8
0
  6
Continuous
 62
     7
370
    15
100
AcDbLine
 10
178.3786059089
 20
176.4350368579
 30
0.0
 11
183.5866064496
 21
182.0350310703
 31
0.0
  0
LINE
  5
1BA
330
1F
100
AcDbEntity
  8
0
  6
Continuous
 62
     7
370
    15
100
AcDbLine
 10
186.897607214
 20
182.0350310703
 30
0.0
 11
181.3536041148
 21
176.4350368579
 31
0.0
  0
LINE
  5
1BB
330
1F
100
AcDbEntity
  8
0
  6
Continuous
 62
     7
370
    15
100
AcDbLine
 10
181.3536041148
 20
176.4350368579
 30
0.0
 11
184.3286060459
 21
176.4350368579
 31
0.0
  0
LINE
  5
1BC
330
1F
100
AcDbEntity
  8
0
  6
Continuous
 62
     7
370
    15
100
AcDbLine
 10
184.3286060459
 20
176.4350368579
 30
0.0
 11
189.8592837818
 21
181.7023477455
 31
0.0
  0
LINE
  5
1BD
330
1F
100
AcDbEntity
  8
0
  6
Continuous
 62
     7
370
    15
100
AcDbLine
 10
194.2334190674
 20
177.3282124599
 30
0.0
 11
188.9661081798
 21
171.7975347241
 31
0.0
  0
LINE
  5
1BE
330
1F
100
AcDbEntity
  8
0
  6
Continuous
 62
     7
370
    15
100
AcDbLine
 10
188.9661081798
 20
171.7975347241
 30
0.0
 11
188.9661081798
 21
168.8225327929
 31
0.0
  0
LINE
  5
1BF
330
1F
100
AcDbEntity
  8
0
  6
Continuous
 62
     7
370
    15
100
AcDbLine
 10
188.9661081798
 20
168.8225327929
 30
0.0
 11
194.5661023922
 21
174.3665358921
 31
0.0
  0
LINE
  5
1C0
330
1F
100
AcDbEntity
  8
0
  6
Continuous
 62
     7
370
    15
100
AcDbLine
 10
194.5661023922
 20
171.0555351277
 30
0.0
 11
188.9661081798
 21
165.847534587
 31
0.0
  0
LINE
  5
1C1
330
1F
100
AcDbEntity
  8
0
  6
Continuous
 62
     7
370
    15
100
AcDbLine
 10
188.9661081798
 20
165.847534587
 30
0.0
 11
188.9661081798
 21
162.8725326558
 31
0.0
  0
LINE
  5
1C2
330
1F
100
AcDbEntity
  8
0
  6
Continuous
 62
     7
370
    15
100
AcDbLine
 10
188.9661081798
 20
162.8725326558
 30
0.0
 11
194.5661023922
 21
167.7445343633
 31
0.0
  0
LINE
  5
1C3
330
1F
100
AcDbEntity
  8
0
  6
Continuous
 62
     7
370
    15
100
AcDbLine
 10
194.5661023922
 20
164.433533599
 30
0.0
 11
188.9661081798
 21
159.8975344499
 31
0.0
  0
LINE
  5
1C4
330
1F
100
AcDbEntity
  8
0
  6
Continuous
 62
     7
370
    15
100
AcDbLine
 10
188.9661081798
 20
159.8975344499
 30
0.0
 11
188.9661081798
 21
156.922536244
 31
0.0
  0
LINE
  5
1C5
330
1F
100
AcDbEntity
  8
0
  6
Continuous
 62
     7
370
    15
100
AcDbLine
 10
188.9661081798
 20
156.922536244
 30
0.0
 11
194.5661023922
 21
161.1225328346
 31
0.0
  0
LINE
  5
1C6
330
1F
100
AcDbEntity
  8
0
  6
Continuous
 62
     7
370
    15
100
AcDbLine
 10
194.5661023922
 20
157.8115320702
 30
0.0
 11
188.9661081798
 21
153.9475343128
 31
0.0
  0
LINE
  5
1C7
330
1F
100
AcDbEntity
  8
0
  6
Continuous
 62
     7
370
    15
100
AcDbLine
 10
188.9661081798
 20
153.9475343128
 30
0.0
 11
188.9661081798
 21
150.9725361069
 31
0.0
  0
LINE
  5
1C8
330
1F
100
AcDbEntity
  8
0
  6
Continuous
 62
     7
370
    15
100
AcDbLine
 10
188.9661081798
 20
150.9725361069
 30
0.0
 11
194.5661023922
 21
154.5005350312
 31
0.0
  0
LINE
  5
1C9
330
1F
100
AcDbEntity
  8
0
  6
Continuous
 62
     7
370
    15
100
AcDbLine
 10
194.5661023922
 20
151.1895342668
 30
0.0
 11
188.9661081798
 21
147.9975341757
 31
0.0
  0
LINE
  5
1CA
330
1F
100
AcDbEntity
  8
0
  6
Continuous
 62
     7
370
    15
100
AcDbLine
 10
188.9661081798
 20
147.9975341757
 30
0.0
 11
188.9661081798
 21
145.0225341072
 31
0.0
  0
LINE
  5
1CB
330
1F
100
AcDbEntity
  8
0
  6
Continuous
 62
     7
370
    15
100
AcDbLine
 10
188.9661081798
 20
145.0225341072
 30
0.0
 11
194.5661023922
 21
147.8785335024
 31
0.0
  0
LINE
  5
1CC
330
1F
100
AcDbEntity
  8
0
  6
Continuous
 62
     7
370
    15
100
AcDbLine
 10
194.5661023922
 20
144.567532738
 30
0.0
 11
188.9661081798
 21
142.0475340386
 31
0.0
  0
LINE
  5
1CD
330
1F
100
AcDbEntity
  8
0
  6
Continuous
 62
     7
370
    15
100
AcDbLine
 10
188.9661081798
 20
142.0475340386
 30
0.0
 11
188.9661081798
 21
139.0725339701
 31
0.0
  0
LINE
  5
1CE
330
1F
100
AcDbEntity
  8
0
  6
Continuous
 62
     7
370
    15
100
AcDbLine
 10
188.9661081798
 20
139.0725339701
 30
0.0
 11
194.5661023922
 21
141.2565338363
 31
0.0
  0
LINE
  5
1CF
330
1F
100
AcDbEntity
  8
0
  6
Continuous
 62
     7
370
    15
100
AcDbLine
 10
194.5661023922
 20
137.945533072
 30
0.0
 11
188.9661081798
 21
136.0975339015
 31
0.0
  0
LINE
  5
1D0
330
1F
100
AcDbEntity
  8
0
  6
Continuous
 62
     7
370
    15
100
AcDbLine
 10
188.9661081798
 20
136.0975339015
 30
0.0
 11
188.9661081798
 21
133.1225347643
 31
0.0
  0
LINE
  5
1D1
330
1F
100
AcDbEntity
  8
0
  6
Continuous
 62
     7
370
    15
100
AcDbLine
 10
188.9661081798
 20
133.1225347643
 30
0.0
 11
194.5661023922
 21
134.6345341702
 31
0.0
  0
LINE
  5
1D2
330
1F
100
AcDbEntity
  8
0
  6
Continuous
 62
     7
370
    15
100
AcDbLine
 10
194.5661023922
 20
131.3235343372
 30
0.0
 11
188.9661081798
 21
130.1475346958
 31
0.0
  0
LINE
  5
1D3
330
1F
100
AcDbEntity
  8
0
  6
Continuous
 62
     7
370
    15
100
AcDbLine
 10
188.9661081798
 20
130.1475346958
 30
0.0
 11
188.9661081798
 21
127.1725346272
 31
0.0
  0
LINE
  5
1D4
330
1F
100
AcDbEntity
  8
0
  6
Continuous
 62
     7
370
    15
100
AcDbLine
 10
188.9661081798
 20
127.1725346272
 30
0.0
 11
194.5661023922
 21
128.0125345041
 31
0.0
  0
LINE
  5
1D5
330
1F
100
AcDbEntity
  8
0
  6
Continuous
 62
     7
370
    15
100
AcDbLine
 10
194.5661023922
 20
124.7015342054
 30
0.0
 11
188.9661081798
 21
124.1975345587
 31
0.0
  0
LINE
  5
1D6
330
1F
100
AcDbEntity
  8
0
  6
Continuous
 62
     7
370
    15
100
AcDbLine
 10
188.9661081798
 20
124.1975345587
 30
0.0
 11
188.9661081798
 21
121.2225344901
 31
0.0
  0
LINE
  5
1D7
330
1F
100
AcDbEntity
  8
0
  6
Continuous
 62
     7
370
    15
100
AcDbLine
 10
188.9661081798
 20
121.2225344901
 30
0.0
 11
194.5661023922
 21
121.3905343724
 31
0.0
  0
LINE
  5
1D8
330
1F
100
AcDbEntity
  8
0
  6
Continuous
 62
     7
370
    15
100
AcDbLine
 10
194.5661023922
 20
118.0795345393
 30
0.0
 11
188.9661081798
 21
118.2475344216
 31
0.0
  0
LINE
  5
1D9
330
1F
100
AcDbEntity
  8
0
  6
Continuous
 62
     7
370
    15
100
AcDbLine
 10
188.9661081798
 20
118.2475344216
 30
0.0
 11
188.9661081798
 21
115.272534353
 31
0.0
  0
LINE
  5
1DA
330
1F
100
AcDbEntity
  8
0
  6
Continuous
 62
     7
370
    15
100
AcDbLine
 10
188.9661081798
 20
115.272534353
 30
0.0
 11
194.5661023922
 21
114.7685347063
 31
0.0
  0
LINE
  5
1DB
330
1F
100
AcDbEntity
  8
0
  6
Continuous
 62
     7
370
    15
100
AcDbLine
 10
194.5661023922
 20
111.4575344076
 30
0.0
 11
188.9661081798
 21
112.2975342845
 31
0.0
  0
LINE
  5
1DC
330
1F
100
AcDbEntity
  8
0
  6
Continuous
 62
     7
370
    15
100
AcDbLine
 10
188.9661081798
 20
112.2975342845
 30
0.0
 11
188.9661081798
 21
109.3225342159
 31
0.0
  0
LINE
  5
1DD
330
1F
100
AcDbEntity
  8
0
  6
Continuous
 62
     7
370
    15
100
AcDbLine
 10
188.9661081798
 20
109.3225342159
 30
0.0
 11
194.5661023922
 21
108.1465345745
 31
0.0
  0
LINE
  5
1DE
330
1F
100
AcDbEntity
  8
0
  6
Continuous
 62
     7
370
    15
100
AcDbLine
 10
194.5661023922
 20
104.8355347415
 30
0.0
 11
188.9661081798
 21
106.3475341474
 31
0.0
  0
LINE
  5
1DF
330
1F
100
AcDbEntity
  8
0
  6
Continuous
 62
     7
370
    15
100
AcDbLine
 10
188.9661081798
 20
106.3475341474
 30
0.0
 11
188.9661081798
 21
103.3725350102
 31
0.0
  0
LINE
  5
1E0
330
1F
100
AcDbEntity
  8
0
  6
Continuous
 62
     7
370
    15
100
AcDbLine
 10
188.9661081798
 20
103.3725350102
 30
0.0
 11
194.5661023922
 21
101.5245358398
 31
0.0
  0
LINE
  5
1E1
330
1F
100
AcDbEntity
  8
0
  6
Continuous
 62
     7
370
    15
100
AcDbLine
 10
194.5661023922
 20
98.2135350754
 30
0.0
 11
188.9661081798
 21
100.3975349416
 31
0.0
  0
LINE
  5
1E2
330
1F
100
AcDbEntity
  8
0
  6
Continuous
 62
     7
370
    15
100
AcDbLine
 10
188.9661081798
 20
100.3975349416
 30
0.0
 11
188.9661081798
 21
97.4225348731
 31
0.0
  0
LINE
  5
1E3
330
1F
100
AcDbEntity
  8
0
  6
Continuous
 62
     7
370
    15
100
AcDbLine
 10
188.9661081798
 20
97.4225348731
 30
0.0
 11
194.5661023922
 21
94.9025361737
 31
0.0
  0
LINE
  5
1E4
330
1F
100
AcDbEntity
  8
0
  6
Continuous
 62
     7
370
    15
100
AcDbLine
 10
194.5661023922
 20
91.5915354093
 30
0.0
 11
188.9661081798
 21
94.4475348045
 31
0.0
  0
LINE
  5
1E5
330
1F
100
AcDbEntity
  8
0
  6
Continuous
 62
     7
370
    15
100
AcDbLine
 10
188.9661081798
 20
94.4475348045
 30
0.0
 11
188.9661081798
 21
91.472534736
 31
0.0
  0
LINE
  5
1E6
330
1F
100
AcDbEntity
  8
0
  6
Continuous
 62
     7
370
    15
100
AcDbLine
 10
188.9661081798
 20
91.472534736
 30
0.0
 11
194.5661023922
 21
88.2805346449
 31
0.0
  0
LINE
  5
1E7
330
1F
100
AcDbEntity
  8
0
  6
Continuous
 62
     7
370
    15
100
AcDbLine
 10
194.5661023922
 20
84.9695338805
 30
0.0
 11
188.9661081798
 21
88.4975328048
 31
0.0
  0
LINE
  5
1E8
330
1F
100
AcDbEntity
  8
0
  6
Continuous
 62
     7
370
    15
100
AcDbLine
 10
188.9661081798
 20
88.4975328048
 30
0.0
 11
188.9661081798
 21
85.5225345989
 31
0.0
  0
LINE
  5
1E9
330
1F
100
AcDbEntity
  8
0
  6
Continuous
 62
     7
370
    15
100
AcDbLine
 10
188.9661081798
 20
85.5225345989
 30
0.0
 11
194.5661023922
 21
81.6585368415
 31
0.0
  0
LINE
  5
1EA
330
1F
100
AcDbEntity
  8
0
  6
Continuous
 62
     7
370
    15
100
AcDbLine
 10
194.5661023922
 20
78.3475360771
 30
0.0
 11
188.9661081798
 21
82.5475326677
 31
0.0
  0
LINE
  5
1EB
330
1F
100
AcDbEntity
  8
0
  6
Continuous
 62
     7
370
    15
100
AcDbLine
 10
188.9661081798
 20
82.5475326677
 30
0.0
 11
188.9661081798
 21
79.5725344618
 31
0.0
  0
LINE
  5
1EC
330
1F
100
AcDbEntity
  8
0
  6
Continuous
 62
     7
370
    15
100
AcDbLine
 10
188.9661081798
 20
79.5725344618
 30
0.0
 11
194.5661023922
 21
75.0365353127
 31
0.0
  0
LINE
  5
1ED
330
1F
100
AcDbEntity
  8
0
  6
Continuous
 62
     7
370
    15
100
AcDbLine
 10
194.5661023922
 20
71.7255345484
 30
0.0
 11
188.9661081798
 21
76.5975362559
 31
0.0
  0
LINE
  5
1EE
330
1F
100
AcDbEntity
  8
0
  6
Continuous
 62
     7
370
    15
100
AcDbLine
 10
188.9661081798
 20
76.5975362559
 30
0.0
 11
188.9661081798
 21
73.6225343247
 31
0.0
  0
LINE
  5
1EF
330
1F
100
AcDbEntity
  8
0
  6
Continuous
 62
     7
370
    15
100
AcDbLine
 10
188.9661081798
 20
73.6225343247
 30
0.0
 11
194.5661023922
 21
68.414533784
 31
0.0
  0
LINE
  5
1F0
330
1F
100
AcDbEntity
  8
0
  6
Continuous
 62
     7
370
    15
100
AcDbLine
 10
194.5661023922
 20
65.1035330196
 30
0.0
 11
188.9661081798
 21
70.6475361188
 31
0.0
  0
LINE
  5
1F1
330
1F
100
AcDbEntity
  8
0
  6
Continuous
 62
     7
370
    15
100
AcDbLine
 10
188.9661081798
 20
70.6475361188
 30
0.0
 11
188.9661081798
 21
67.6725341876
 31
0.0
  0
LINE
  5
1F2
330
1F
100
AcDbEntity
  8
0
  6
Continuous
 62
     7
370
    15
100
AcDbLine
 10
188.9661081798
 20
67.6725341876
 30
0.0
 11
194.2334190674
 21
62.1418564518
 31
0.0
  0
LINE
  5
1F3
330
1F
100
AcDbEntity
  8
0
  6
Continuous
 62
     7
370
    15
100
AcDbLine
 10
189.8592837818
 20
57.7677211662
 30
0.0
 11
184.3286060459
 21
63.0350320538
 31
0.0
  0
LINE
  5
1F4
330
1F
100
AcDbEntity
  8
0
  6
Continuous
 62
     7
370
    15
100
AcDbLine
 10
184.3286060459
 20
63.0350320538
 30
0.0
 11
181.3536041148
 21
63.0350320538
 31
0.0
  0
LINE
  5
1F5
330
1F
100
AcDbEntity
  8
0
  6
Continuous
 62
     7
370
    15
100
AcDbLine
 10
181.3536041148
 20
63.0350320538
 30
0.0
 11
186.897607214
 21
57.4350378414
 31
0.0
  0
LINE
  5
1F6
330
1F
100
AcDbEntity
  8
0
  6
Continuous
 62
     7
370
    15
100
AcDbLine
 10
183.5866064496
 20
57.4350378414
 30
0.0
 11
178.3786059089
 21
63.0350320538
 31
0.0
  0
LINE
  5
1F7
330
1F
100
AcDbEntity
  8
0
  6
Continuous
 62
     7
370
    15
100
AcDbLine
 10
178.3786059089
 20
63.0350320538
 30
0.0
 11
175.4036039777
 21
63.0350320538
 31
0.0
  0
LINE
  5
1F8
330
1F
100
AcDbEntity
  8
0
  6
Continuous
 62
     7
370
    15
100
AcDbLine
 10
175.4036039777
 20
63.0350320538
 30
0.0
 11
180.2756056852
 21
57.4350378414
 31
0.0
  0
LINE
  5
1F9
330
1F
100
AcDbEntity
  8
0
  6
Continuous
 62
     7
370
    15
100
AcDbLine
 10
176.9646049209
 20
57.4350378414
 30
0.0
 11
172.4286057718
 21
63.0350320538
 31
0.0
  0
LINE
  5
1FA
330
1F
100
AcDbEntity
  8
0
  6
Continuous
 62
     7
370
    15
100
AcDbLine
 10
172.4286057718
 20
63.0350320538
 30
0.0
 11
169.4536075659
 21
63.0350320538
 31
0.0
  0
LINE
  5
1FB
330
1F
100
AcDbEntity
  8
0
  6
Continuous
 62
     7
370
    15
100
AcDbLine
 10
169.4536075659
 20
63.0350320538
 30
0.0
 11
173.6536041565
 21
57.4350378414
 31
0.0
  0
LINE
  5
1FC
330
1F
100
AcDbEntity
  8
0
  6
Continuous
 62
     7
370
    15
100
AcDbLine
 10
170.3426033921
 20
57.4350378414
 30
0.0
 11
166.4786056347
 21
63.0350320538
 31
0.0
  0
ARC
  5
1FD
330
1F
100
AcDbEntity
  8
0
  6
Continuous
 62
     7
370
    15
100
AcDbCircle
 10
186.8661068715
 20
137.4660350087
 30
0.0
 40
4.200000199490084
100
AcDbArc
 50
90.0000351265
 51
269.9999648735
  0
LINE
  5
1FE
330
1F
100
AcDbEntity
  8
0
  6
Continuous
 62
     7
370
    15
100
AcDbLine
 10
186.8661061592
 20
141.6660345097
 30
0.0
 11
186.8661061592
 21
151.1440335711
 31
0.0
  0
ARC
  5
1FF
330
1F
100
AcDbEntity
  8
0
  6
Continuous
 62
     7
370
    15
100
AcDbCircle
 10
186.8661077654
 20
155.3440350511
 30
0.0
 40
4.200001014397981
100
AcDbArc
 50
90.0000473211
 51
269.9999526789
  0
LINE
  5
200
330
1F
100
AcDbEntity
  8
0
  6
Continuous
 62
     7
370
    15
100
AcDbLine
 10
186.8661061592
 20
159.5440379282
 30
0.0
 11
186.8661061592
 21
172.8501080473
 31
0.0
  0
LINE
  5
201
330
1F
100
AcDbEntity
  8
0
  6
Continuous
 62
     7
370
    15
100
AcDbLine
 10
186.8661061592
 20
172.8501080473
 30
0.0
 11
193.2622507877
 21
179.2462489506
 31
0.0
  0
LINE
  5
202
330
1F
100
AcDbEntity
  8
0
  6
Continuous
 62
     7
370
    15
100
AcDbLine
 10
191.7773202724
 20
180.7311794658
 30
0.0
 11
185.3811793692
 21
174.3350348373
 31
0.0
  0
LINE
  5
203
330
1F
100
AcDbEntity
  8
0
  6
Continuous
 62
     7
370
    15
100
AcDbLine
 10
185.3811793692
 20
174.3350348373
 30
0.0
 11
172.3691054351
 21
174.3350348373
 31
0.0
  0
ARC
  5
204
330
1F
100
AcDbEntity
  8
0
  6
Continuous
 62
     7
370
    15
100
AcDbCircle
 10
168.169105352
 20
174.3350364435
 30
0.0
 40
4.200001014397981
100
AcDbArc
 50
180.0000473211
 51
359.9999526789
  0
LINE
  5
205
330
1F
100
AcDbEntity
  8
0
  6
Continuous
 62
     7
370
    15
100
AcDbLine
 10
163.9691048033
 20
174.3350348373
 30
0.0
 11
154.491105742
 21
174.3350348373
 31
0.0
  0
ARC
  5
206
330
1F
100
AcDbEntity
  8
0
  6
Continuous
 62
     7
370
    15
100
AcDbCircle
 10
150.2911053096
 20
174.3350355496
 30
0.0
 40
4.200000199490084
100
AcDbArc
 50
180.0000351265
 51
359.9999648735
  0
LINE
  5
207
330
1F
100
AcDbEntity
  8
0
  6
Continuous
 62
     7
370
    15
100
AcDbLine
 10
146.0911051102
 20
174.3350348373
 30
0.0
 11
136.6131060488
 21
174.3350348373
 31
0.0
  0
ARC
  5
208
330
1F
100
AcDbEntity
  8
0
  6
Continuous
 62
     7
370
    15
100
AcDbCircle
 10
132.4131058784
 20
174.3350352978
 30
0.0
 40
4.199999995763124
100
AcDbArc
 50
180.0000316915
 51
359.9999683085
  0
LINE
  5
209
330
1F
100
AcDbEntity
  8
0
  6
Continuous
 62
     7
370
    15
100
AcDbLine
 10
128.2131058827
 20
174.3350348373
 30
0.0
 11
118.7351054243
 21
174.3350348373
 31
0.0
  0
ARC
  5
20A
330
1F
100
AcDbEntity
  8
0
  6
Continuous
 62
     7
370
    15
100
AcDbCircle
 10
114.5351052248
 20
174.3350355496
 30
0.0
 40
4.200000199490084
100
AcDbArc
 50
180.0000351265
 51
359.9999648735
  0
LINE
  5
20B
330
1F
100
AcDbEntity
  8
0
  6
Continuous
 62
     7
370
    15
100
AcDbLine
 10
110.3351057238
 20
174.3350348373
 30
0.0
 11
100.8571066625
 21
174.3350348373
 31
0.0
  0
ARC
  5
20C
330
1F
100
AcDbEntity
  8
0
  6
Continuous
 62
     7
370
    15
100
AcDbCircle
 10
96.6571051824
 20
174.3350364435
 30
0.0
 40
4.200001014397981
100
AcDbArc
 50
180.0000473211
 51
359.9999526789
  0
LINE
  5
20D
330
1F
100
AcDbEntity
  8
0
  6
Continuous
 62
     7
370
    15
100
AcDbLine
 10
92.4571023054
 20
174.3350348373
 30
0.0
 11
79.1510321863
 21
174.3350348373
 31
0.0
  0
LINE
  5
20E
330
1F
100
AcDbEntity
  8
0
  6
Continuous
 62
     7
370
    15
100
AcDbLine
 10
79.1510321863
 20
174.3350348373
 30
0.0
 11
73.6497879691
 21
179.8362753292
 31
0.0
  0
LINE
  5
20F
330
1F
100
AcDbEntity
  8
0
  6
Continuous
 62
     7
370
    15
100
AcDbLine
 10
72.1313298411
 20
178.3848798772
 30
0.0
 11
77.6661053963
 21
172.8501080473
 31
0.0
  0
LINE
  5
210
330
1F
100
AcDbEntity
  8
0
  6
Continuous
 62
     7
370
    15
100
AcDbLine
 10
77.6661053963
 20
172.8501080473
 30
0.0
 11
77.6661053963
 21
159.8380341132
 31
0.0
  0
ARC
  5
211
330
1F
100
AcDbEntity
  8
0
  6
Continuous
 62
     7
370
    15
100
AcDbCircle
 10
77.6661037901
 20
155.6380340302
 30
0.0
 40
4.200001014397981
100
AcDbArc
 50
270.0000473211
 51
89.9999526789
  0
LINE
  5
212
330
1F
100
AcDbEntity
  8
0
  6
Continuous
 62
     7
370
    15
100
AcDbLine
 10
77.6661053963
 20
151.4380334814
 30
0.0
 11
77.6661053963
 21
141.9600344201
 31
0.0
  0
ARC
  5
213
330
1F
100
AcDbEntity
  8
0
  6
Continuous
 62
     7
370
    15
100
AcDbCircle
 10
77.666104684
 20
137.7600339878
 30
0.0
 40
4.200000199490084
100
AcDbArc
 50
270.0000351265
 51
89.9999648735
  0
LINE
  5
214
330
1F
100
AcDbEntity
  8
0
  6
Continuous
 62
     7
370
    15
100
AcDbLine
 10
77.6661053963
 20
133.5600337883
 30
0.0
 11
77.6661053963
 21
124.0820347269
 31
0.0
  0
ARC
  5
215
330
1F
100
AcDbEntity
  8
0
  6
Continuous
 62
     7
370
    15
100
AcDbCircle
 10
77.6661049358
 20
119.8820345565
 30
0.0
 40
4.199999995763124
100
AcDbArc
 50
270.0000316915
 51
89.9999683085
  0
LINE
  5
216
330
1F
100
AcDbEntity
  8
0
  6
Continuous
 62
     7
370
    15
100
AcDbLine
 10
77.6661053963
 20
115.6820345608
 30
0.0
 11
77.6661053963
 21
106.2040341025
 31
0.0
  0
ARC
  5
217
330
1F
100
AcDbEntity
  8
0
  6
Continuous
 62
     7
370
    15
100
AcDbCircle
 10
77.666104684
 20
102.004033903
 30
0.0
 40
4.200000199490084
100
AcDbArc
 50
270.0000351265
 51
89.9999648735
  0
LINE
  5
218
330
1F
100
AcDbEntity
  8
0
  6
Continuous
 62
     7
370
    15
100
AcDbLine
 10
77.6661053963
 20
97.804034402
 30
0.0
 11
77.6661053963
 21
88.3260353406
 31
0.0
  0
ARC
  5
219
330
1F
100
AcDbEntity
  8
0
  6
Continuous
 62
     7
370
    15
100
AcDbCircle
 10
77.6661037901
 20
84.1260338606
 30
0.0
 40
4.200001014397981
100
AcDbArc
 50
270.0000473211
 51
89.9999526789
  0
LINE
  5
21A
330
1F
100
AcDbEntity
  8
0
  6
Continuous
 62
     7
370
    15
100
AcDbLine
 10
77.6661053963
 20
79.9260309835
 30
0.0
 11
77.6661053963
 21
66.6199608644
 31
0.0
  0
LINE
  5
21B
330
1F
100
AcDbEntity
  8
0
  6
Continuous
 62
     7
370
    15
100
AcDbLine
 10
77.6661053963
 20
66.6199608644
 30
0.0
 11
71.2699607677
 21
60.2238199611
 31
0.0
  0
LINE
  5
21C
330
1F
100
AcDbEntity
  8
0
  6
Continuous
 62
     7
370
    15
100
AcDbLine
 10
72.754891283
 20
58.7388894459
 30
0.0
 11
79.1510321863
 21
65.1350340744
 31
0.0
  0
LINE
  5
21D
330
1F
100
AcDbEntity
  8
0
  6
Continuous
 62
     7
370
    15
100
AcDbLine
 10
79.1510321863
 20
65.1350340744
 30
0.0
 11
92.1631061203
 21
65.1350340744
 31
0.0
  0
ARC
  5
21E
330
1F
100
AcDbEntity
  8
0
  6
Continuous
 62
     7
370
    15
100
AcDbCircle
 10
96.3631062034
 20
65.1350324682
 30
0.0
 40
4.200001014397981
100
AcDbArc
 50
0.0000473211
 51
179.9999526789
  0
LINE
  5
21F
330
1F
100
AcDbEntity
  8
0
  6
Continuous
 62
     7
370
    15
100
AcDbLine
 10
100.5631067521
 20
65.1350340744
 30
0.0
 11
110.0411058135
 21
65.1350340744
 31
0.0
  0
ARC
  5
220
330
1F
100
AcDbEntity
  8
0
  6
Continuous
 62
     7
370
    15
100
AcDbCircle
 10
114.2411062458
 20
65.1350333621
 30
0.0
 40
4.200000199490084
100
AcDbArc
 50
0.0000351265
 51
179.9999648735
  0
LINE
  5
221
330
1F
100
AcDbEntity
  8
0
  6
Continuous
 62
     7
370
    15
100
AcDbLine
 10
118.4411064453
 20
65.1350340744
 30
0.0
 11
127.9191055066
 21
65.1350340744
 31
0.0
  0
ARC
  5
222
330
1F
100
AcDbEntity
  8
0
  6
Continuous
 62
     7
370
    15
100
AcDbCircle
 10
132.119105677
 20
65.1350336139
 30
0.0
 40
4.199999995763124
100
AcDbArc
 50
0.0000316915
 51
179.9999683085
  0
LINE
  5
223
330
1F
100
AcDbEntity
  8
0
  6
Continuous
 62
     7
370
    15
100
AcDbLine
 10
136.3191056728
 20
65.1350340744
 30
0.0
 11
145.7971061311
 21
65.1350340744
 31
0.0
  0
ARC
  5
224
330
1F
100
AcDbEntity
  8
0
  6
Continuous
 62
     7
370
    15
100
AcDbCircle
 10
149.9971063306
 20
65.1350333621
 30
0.0
 40
4.200000199490084
100
AcDbArc
 50
0.0000351265
 51
179.9999648735
  0
LINE
  5
225
330
1F
100
AcDbEntity
  8
0
  6
Continuous
 62
     7
370
    15
100
AcDbLine
 10
154.1971058316
 20
65.1350340744
 30
0.0
 11
163.675104893
 21
65.1350340744
 31
0.0
  0
ARC
  5
226
330
1F
100
AcDbEntity
  8
0
  6
Continuous
 62
     7
370
    15
100
AcDbCircle
 10
167.875106373
 20
65.1350324682
 30
0.0
 40
4.200001014397981
100
AcDbArc
 50
0.0000473211
 51
179.9999526789
  0
LINE
  5
227
330
1F
100
AcDbEntity
  8
0
  6
Continuous
 62
     7
370
    15
100
AcDbLine
 10
172.0751092501
 20
65.1350340744
 30
0.0
 11
185.3811793692
 21
65.1350340744
 31
0.0
  0
LINE
  5
228
330
1F
100
AcDbEntity
  8
0
  6
Continuous
 62
     7
370
    15
100
AcDbLine
 10
185.3811793692
 20
65.1350340744
 30
0.0
 11
191.7773202724
 21
58.7388894459
 31
0.0
  0
LINE
  5
229
330
1F
100
AcDbEntity
  8
0
  6
Continuous
 62
     7
370
    15
100
AcDbLine
 10
193.2622507877
 20
60.2238199611
 30
0.0
 11
186.8661061592
 21
66.6199608644
 31
0.0
  0
LINE
  5
22A
330
1F
100
AcDbEntity
  8
0
  6
Continuous
 62
     7
370
    15
100
AcDbLine
 10
186.8661061592
 20
66.6199608644
 30
0.0
 11
186.8661061592
 21
79.6320347985
 31
0.0
  0
ARC
  5
22B
330
1F
100
AcDbEntity
  8
0
  6
Continuous
 62
     7
370
    15
100
AcDbCircle
 10
186.8661077654
 20
83.8320348815
 30
0.0
 40
4.200001014397981
100
AcDbArc
 50
90.0000473211
 51
269.9999526789
  0
LINE
  5
22C
330
1F
100
AcDbEntity
  8
0
  6
Continuous
 62
     7
370
    15
100
AcDbLine
 10
186.8661061592
 20
88.0320354303
 30
0.0
 11
186.8661061592
 21
97.5100344916
 31
0.0
  0
ARC
  5
22D
330
1F
100
AcDbEntity
  8
0
  6
Continuous
 62
     7
370
    15
100
AcDbCircle
 10
186.8661068715
 20
101.7100349239
 30
0.0
 40
4.200000199490084
100
AcDbArc
 50
90.0000351265
 51
269.9999648735
  0
LINE
  5
22E
330
1F
100
AcDbEntity
  8
0
  6
Continuous
 62
     7
370
    15
100
AcDbLine
 10
186.8661061592
 20
105.9100351234
 30
0.0
 11
186.8661061592
 21
115.3880341848
 31
0.0
  0
ARC
  5
22F
330
1F
100
AcDbEntity
  8
0
  6
Continuous
 62
     7
370
    15
100
AcDbCircle
 10
186.8661066197
 20
119.5880343552
 30
0.0
 40
4.199999995763124
100
AcDbArc
 50
90.0000316915
 51
269.9999683085
  0
LINE
  5
230
330
1F
100
AcDbEntity
  8
0
  6
Continuous
 62
     7
370
    15
100
AcDbLine
 10
186.8661061592
 20
123.7880343509
 30
0.0
 11
186.8661061592
 21
133.2660348092
 31
0.0
  0
LINE
  5
231
330
1F
100
AcDbEntity
  8
0
  6
Continuous
 62
     7
370
    15
100
AcDbLine
 10
69.9661091633
 20
64.2820692559
 30
0.0
 11
70.0349972315
 21
63.2954000433
 31
0.0
  0
LINE
  5
232
330
1F
100
AcDbEntity
  8
0
  6
Continuous
 62
     7
370
    15
100
AcDbLine
 10
70.0349972315
 20
63.2953665157
 30
0.0
 11
70.2403575845
 21
62.3336008688
 31
0.0
  0
LINE
  5
233
330
1F
100
AcDbEntity
  8
0
  6
Continuous
 62
     7
370
    15
100
AcDbLine
 10
70.2403538592
 20
62.3336120446
 30
0.0
 11
70.5781929858
 21
61.4153615137
 31
0.0
  0
LINE
  5
234
330
1F
100
AcDbEntity
  8
0
  6
Continuous
 62
     7
370
    15
100
AcDbLine
 10
70.5782078869
 20
61.4153354367
 30
0.0
 11
71.0420586831
 21
60.5582318207
 31
0.0
  0
ARC
  5
235
330
1F
100
AcDbEntity
  8
0
  6
Continuous
 62
     7
370
    15
100
AcDbCircle
 10
76.6992215514
 20
64.1681614054
 30
0.0
 40
6.710824122546614
100
AcDbArc
 50
212.5428187954
 51
237.4571812046
  0
LINE
  5
236
330
1F
100
AcDbEntity
  8
0
  6
Continuous
 62
     7
370
    15
100
AcDbLine
 10
73.0892807908
 20
58.5109948118
 30
0.0
 11
73.9463806815
 21
58.0471477409
 31
0.0
  0
LINE
  5
237
330
1F
100
AcDbEntity
  8
0
  6
Continuous
 62
     7
370
    15
100
AcDbLine
 10
73.9464067585
 20
58.047136565
 30
0.0
 11
74.8646982677
 21
57.7092750867
 31
0.0
  0
LINE
  5
238
330
1F
100
AcDbEntity
  8
0
  6
Continuous
 62
     7
370
    15
100
AcDbLine
 10
74.8646833665
 20
57.7092825373
 30
0.0
 11
75.82640431
 21
57.5039333602
 31
0.0
  0
LINE
  5
239
330
1F
100
AcDbEntity
  8
0
  6
Continuous
 62
     7
370
    15
100
AcDbLine
 10
75.8264378376
 20
57.5039259096
 30
0.0
 11
76.8131405778
 21
57.4350378414
 31
0.0
  0
LINE
  5
23A
330
1F
100
AcDbEntity
  8
0
  6
Continuous
 62
     7
370
    15
100
AcDbLine
 10
187.7190709777
 20
57.4350378414
 30
0.0
 11
188.7057401903
 21
57.5039259096
 31
0.0
  0
LINE
  5
23B
330
1F
100
AcDbEntity
  8
0
  6
Continuous
 62
     7
370
    15
100
AcDbLine
 10
188.7057737179
 20
57.5039259096
 30
0.0
 11
189.6675393648
 21
57.7092862626
 31
0.0
  0
LINE
  5
23C
330
1F
100
AcDbEntity
  8
0
  6
Continuous
 62
     7
370
    15
100
AcDbLine
 10
189.6675281889
 20
57.7092825373
 30
0.0
 11
190.5857787199
 21
58.0471216639
 31
0.0
  0
LINE
  5
23D
330
1F
100
AcDbEntity
  8
0
  6
Continuous
 62
     7
370
    15
100
AcDbLine
 10
190.5858047969
 20
58.047136565
 30
0.0
 11
191.4429084129
 21
58.5109873613
 31
0.0
  0
ARC
  5
23E
330
1F
100
AcDbEntity
  8
0
  6
Continuous
 62
     7
370
    15
100
AcDbCircle
 10
187.8329788282
 20
64.1681502295
 30
0.0
 40
6.710824122546722
100
AcDbArc
 50
302.5428187954
 51
327.4571812046
  0
LINE
  5
23F
330
1F
100
AcDbEntity
  8
0
  6
Continuous
 62
     7
370
    15
100
AcDbLine
 10
193.4901454217
 20
60.5582094689
 30
0.0
 11
193.9539924927
 21
61.4153093596
 31
0.0
  0
LINE
  5
240
330
1F
100
AcDbEntity
  8
0
  6
Continuous
 62
     7
370
    15
100
AcDbLine
 10
193.9540036685
 20
61.4153354367
 30
0.0
 11
194.2918651469
 21
62.3336269458
 31
0.0
  0
LINE
  5
241
330
1F
100
AcDbEntity
  8
0
  6
Continuous
 62
     7
370
    15
100
AcDbLine
 10
194.2918576963
 20
62.3336120446
 30
0.0
 11
194.4972068734
 21
63.2953329881
 31
0.0
  0
LINE
  5
242
330
1F
100
AcDbEntity
  8
0
  6
Continuous
 62
     7
370
    15
100
AcDbLine
 10
194.497214324
 20
63.2953665157
 30
0.0
 11
194.5661023922
 21
64.2820692559
 31
0.0
  0
LINE
  5
243
330
1F
100
AcDbEntity
  8
0
  6
Continuous
 62
     7
370
    15
100
AcDbLine
 10
194.5661023922
 20
175.1879996558
 30
0.0
 11
194.497214324
 21
176.1746688684
 31
0.0
  0
LINE
  5
244
330
1F
100
AcDbEntity
  8
0
  6
Continuous
 62
     7
370
    15
100
AcDbLine
 10
194.497214324
 20
176.174702396
 30
0.0
 11
194.291853971
 21
177.1364680429
 31
0.0
  0
LINE
  5
245
330
1F
100
AcDbEntity
  8
0
  6
Continuous
 62
     7
370
    15
100
AcDbLine
 10
194.2918576963
 20
177.1364568671
 30
0.0
 11
193.9540185697
 21
178.054707398
 31
0.0
  0
LINE
  5
246
330
1F
100
AcDbEntity
  8
0
  6
Continuous
 62
     7
370
    15
100
AcDbLine
 10
193.9540036685
 20
178.054733475
 30
0.0
 11
193.4901528723
 21
178.911837091
 31
0.0
  0
ARC
  5
247
330
1F
100
AcDbEntity
  8
0
  6
Continuous
 62
     7
370
    15
100
AcDbCircle
 10
187.832990004
 20
175.3019075063
 30
0.0
 40
6.710824122546716
100
AcDbArc
 50
32.5428187954
 51
57.4571812046
  0
LINE
  5
248
330
1F
100
AcDbEntity
  8
0
  6
Continuous
 62
     7
370
    15
100
AcDbLine
 10
191.4429307647
 20
180.9590740999
 30
0.0
 11
190.585830874
 21
181.4229211708
 31
0.0
  0
LINE
  5
249
330
1F
100
AcDbEntity
  8
0
  6
Continuous
 62
     7
370
    15
100
AcDbLine
 10
190.5858047969
 20
181.4229323467
 30
0.0
 11
189.6675132878
 21
181.760793825
 31
0.0
  0
LINE
  5
24A
330
1F
100
AcDbEntity
  8
0
  6
Continuous
 62
     7
370
    15
100
AcDbLine
 10
189.6675281889
 20
181.7607863744
 30
0.0
 11
188.7058072455
 21
181.9661355515
 31
0.0
  0
LINE
  5
24B
330
1F
100
AcDbEntity
  8
0
  6
Continuous
 62
     7
370
    15
100
AcDbLine
 10
188.7057737179
 20
181.9661430021
 30
0.0
 11
187.7190709777
 21
182.0350310703
 31
0.0
  0
MTEXT
  5
24C
330
1F
100
AcDbEntity
  8
FORMAT
100
AcDbMText
 10
132.4290181167
 20
201.2522585418
 30
0.0
 40
3.7041666667
 41
0.0
 71
     2
 72
     1
  1
BONDING DIAGRAM
  7
SLDTEXTSTYLE0
 73
     1
 44
1.0
  0
MTEXT
  5
24D
330
1F
100
AcDbEntity
  8
NOTES
100
AcDbMText
 10
74.7273113696
 20
188.210017778
 30
0.0
 40
2.6458333333
 41
0.0
 71
     2
 72
     1
  1
72
  7
SLDTEXTSTYLE0
 73
     1
 44
1.0
  0
MTEXT
  5
24E
330
1F
100
AcDbEntity
  8
NOTES
100
AcDbMText
 10
74.5593576576
 20
54.8178136665
 30
0.0
 40
2.6458333333
 41
0.0
 71
     2
 72
     1
  1
19
  7
SLDTEXTSTYLE0
 73
     1
 44
1.0
  0
MTEXT
  5
24F
330
1F
100
AcDbEntity
  8
NOTES
100
AcDbMText
 10
201.1873612482
 20
179.6135643576
 30
0.0
 40
2.6458333333
 41
0.0
 71
     2
 72
     1
  1
54
  7
SLDTEXTSTYLE0
 73
     1
 44
1.0
  0
MTEXT
  5
250
330
1F
100
AcDbEntity
  8
NOTES
100
AcDbMText
 10
64.1310270316
 20
179.6135643576
 30
0.0
 40
2.6458333333
 41
0.0
 71
     2
 72
     1
  1
1
  7
SLDTEXTSTYLE0
 73
     1
 44
1.0
  0
MTEXT
  5
251
330
1F
100
AcDbEntity
  8
NOTES
100
AcDbMText
 10
189.9893576576
 20
54.8178136665
 30
0.0
 40
2.6458333333
 41
0.0
 71
     2
 72
     1
  1
36
  7
SLDTEXTSTYLE0
 73
     1
 44
1.0
  0
MTEXT
  5
252
330
1F
100
AcDbEntity
  8
NOTES
100
AcDbMText
 10
183.1993576576
 20
54.8178136665
 30
0.0
 40
2.6458333333
 41
0.0
 71
     2
 72
     1
  1
35
  7
SLDTEXTSTYLE0
 73
     1
 44
1.0
  0
MTEXT
  5
253
330
1F
100
AcDbEntity
  8
NOTES
100
AcDbMText
 10
176.4093576576
 20
54.8178136665
 30
0.0
 40
2.6458333333
 41
0.0
 71
     2
 72
     1
  1
34
  7
SLDTEXTSTYLE0
 73
     1
 44
1.0
  0
MTEXT
  5
254
330
1F
100
AcDbEntity
  8
NOTES
100
AcDbMText
 10
169.6193576576
 20
54.8178136665
 30
0.0
 40
2.6458333333
 41
0.0
 71
     2
 72
     1
  1
33
  7
SLDTEXTSTYLE0
 73
     1
 44
1.0
  0
MTEXT
  5
255
330
1F
100
AcDbEntity
  8
NOTES
100
AcDbMText
 10
162.8293576576
 20
54.8178136665
 30
0.0
 40
2.6458333333
 41
0.0
 71
     2
 72
     1
  1
32
  7
SLDTEXTSTYLE0
 73
     1
 44
1.0
  0
MTEXT
  5
256
330
1F
100
AcDbEntity
  8
NOTES
100
AcDbMText
 10
156.0393576576
 20
54.8178136665
 30
0.0
 40
2.6458333333
 41
0.0
 71
     2
 72
     1
  1
31
  7
SLDTEXTSTYLE0
 73
     1
 44
1.0
  0
MTEXT
  5
257
330
1F
100
AcDbEntity
  8
NOTES
100
AcDbMText
 10
149.2493576576
 20
54.8178136665
 30
0.0
 40
2.6458333333
 41
0.0
 71
     2
 72
     1
  1
30
  7
SLDTEXTSTYLE0
 73
     1
 44
1.0
  0
MTEXT
  5
258
330
1F
100
AcDbEntity
  8
NOTES
100
AcDbMText
 10
142.4593576576
 20
54.8178136665
 30
0.0
 40
2.6458333333
 41
0.0
 71
     2
 72
     1
  1
29
  7
SLDTEXTSTYLE0
 73
     1
 44
1.0
  0
MTEXT
  5
259
330
1F
100
AcDbEntity
  8
NOTES
100
AcDbMText
 10
135.6693576576
 20
54.8178136665
 30
0.0
 40
2.6458333333
 41
0.0
 71
     2
 72
     1
  1
28
  7
SLDTEXTSTYLE0
 73
     1
 44
1.0
  0
MTEXT
  5
25A
330
1F
100
AcDbEntity
  8
NOTES
100
AcDbMText
 10
128.8793576576
 20
54.8178136665
 30
0.0
 40
2.6458333333
 41
0.0
 71
     2
 72
     1
  1
27
  7
SLDTEXTSTYLE0
 73
     1
 44
1.0
  0
MTEXT
  5
25B
330
1F
100
AcDbEntity
  8
NOTES
100
AcDbMText
 10
122.0893576576
 20
54.8178136665
 30
0.0
 40
2.6458333333
 41
0.0
 71
     2
 72
     1
  1
26
  7
SLDTEXTSTYLE0
 73
     1
 44
1.0
  0
MTEXT
  5
25C
330
1F
100
AcDbEntity
  8
NOTES
100
AcDbMText
 10
115.2993576576
 20
54.8178136665
 30
0.0
 40
2.6458333333
 41
0.0
 71
     2
 72
     1
  1
25
  7
SLDTEXTSTYLE0
 73
     1
 44
1.0
  0
MTEXT
  5
25D
330
1F
100
AcDbEntity
  8
NOTES
100
AcDbMText
 10
108.5093576576
 20
54.8178136665
 30
0.0
 40
2.6458333333
 41
0.0
 71
     2
 72
     1
  1
24
  7
SLDTEXTSTYLE0
 73
     1
 44
1.0
  0
MTEXT
  5
25E
330
1F
100
AcDbEntity
  8
NOTES
100
AcDbMText
 10
101.7193576576
 20
54.8178136665
 30
0.0
 40
2.6458333333
 41
0.0
 71
     2
 72
     1
  1
23
  7
SLDTEXTSTYLE0
 73
     1
 44
1.0
  0
MTEXT
  5
25F
330
1F
100
AcDbEntity
  8
NOTES
100
AcDbMText
 10
94.9293576576
 20
54.8178136665
 30
0.0
 40
2.6458333333
 41
0.0
 71
     2
 72
     1
  1
22
  7
SLDTEXTSTYLE0
 73
     1
 44
1.0
  0
MTEXT
  5
260
330
1F
100
AcDbEntity
  8
NOTES
100
AcDbMText
 10
88.1393576576
 20
54.8178136665
 30
0.0
 40
2.6458333333
 41
0.0
 71
     2
 72
     1
  1
21
  7
SLDTEXTSTYLE0
 73
     1
 44
1.0
  0
MTEXT
  5
261
330
1F
100
AcDbEntity
  8
NOTES
100
AcDbMText
 10
81.3493576576
 20
54.8178136665
 30
0.0
 40
2.6458333333
 41
0.0
 71
     2
 72
     1
  1
20
  7
SLDTEXTSTYLE0
 73
     1
 44
1.0
  0
MTEXT
  5
262
330
1F
100
AcDbEntity
  8
NOTES
100
AcDbMText
 10
190.1573113696
 20
188.210017778
 30
0.0
 40
2.6458333333
 41
0.0
 71
     2
 72
     1
  1
55
  7
SLDTEXTSTYLE0
 73
     1
 44
1.0
  0
MTEXT
  5
263
330
1F
100
AcDbEntity
  8
NOTES
100
AcDbMText
 10
183.3673113696
 20
188.210017778
 30
0.0
 40
2.6458333333
 41
0.0
 71
     2
 72
     1
  1
56
  7
SLDTEXTSTYLE0
 73
     1
 44
1.0
  0
MTEXT
  5
264
330
1F
100
AcDbEntity
  8
NOTES
100
AcDbMText
 10
176.5773113696
 20
188.210017778
 30
0.0
 40
2.6458333333
 41
0.0
 71
     2
 72
     1
  1
57
  7
SLDTEXTSTYLE0
 73
     1
 44
1.0
  0
MTEXT
  5
265
330
1F
100
AcDbEntity
  8
NOTES
100
AcDbMText
 10
169.7873113696
 20
188.210017778
 30
0.0
 40
2.6458333333
 41
0.0
 71
     2
 72
     1
  1
58
  7
SLDTEXTSTYLE0
 73
     1
 44
1.0
  0
MTEXT
  5
266
330
1F
100
AcDbEntity
  8
NOTES
100
AcDbMText
 10
162.9973113696
 20
188.210017778
 30
0.0
 40
2.6458333333
 41
0.0
 71
     2
 72
     1
  1
59
  7
SLDTEXTSTYLE0
 73
     1
 44
1.0
  0
MTEXT
  5
267
330
1F
100
AcDbEntity
  8
NOTES
100
AcDbMText
 10
156.2073113696
 20
188.210017778
 30
0.0
 40
2.6458333333
 41
0.0
 71
     2
 72
     1
  1
60
  7
SLDTEXTSTYLE0
 73
     1
 44
1.0
  0
MTEXT
  5
268
330
1F
100
AcDbEntity
  8
NOTES
100
AcDbMText
 10
149.4173113696
 20
188.210017778
 30
0.0
 40
2.6458333333
 41
0.0
 71
     2
 72
     1
  1
61
  7
SLDTEXTSTYLE0
 73
     1
 44
1.0
  0
MTEXT
  5
269
330
1F
100
AcDbEntity
  8
NOTES
100
AcDbMText
 10
142.6273113696
 20
188.210017778
 30
0.0
 40
2.6458333333
 41
0.0
 71
     2
 72
     1
  1
62
  7
SLDTEXTSTYLE0
 73
     1
 44
1.0
  0
MTEXT
  5
26A
330
1F
100
AcDbEntity
  8
NOTES
100
AcDbMText
 10
135.8373113696
 20
188.210017778
 30
0.0
 40
2.6458333333
 41
0.0
 71
     2
 72
     1
  1
63
  7
SLDTEXTSTYLE0
 73
     1
 44
1.0
  0
MTEXT
  5
26B
330
1F
100
AcDbEntity
  8
NOTES
100
AcDbMText
 10
129.0473113696
 20
188.210017778
 30
0.0
 40
2.6458333333
 41
0.0
 71
     2
 72
     1
  1
64
  7
SLDTEXTSTYLE0
 73
     1
 44
1.0
  0
MTEXT
  5
26C
330
1F
100
AcDbEntity
  8
NOTES
100
AcDbMText
 10
122.2573113696
 20
188.210017778
 30
0.0
 40
2.6458333333
 41
0.0
 71
     2
 72
     1
  1
65
  7
SLDTEXTSTYLE0
 73
     1
 44
1.0
  0
MTEXT
  5
26D
330
1F
100
AcDbEntity
  8
NOTES
100
AcDbMText
 10
115.4673113696
 20
188.210017778
 30
0.0
 40
2.6458333333
 41
0.0
 71
     2
 72
     1
  1
66
  7
SLDTEXTSTYLE0
 73
     1
 44
1.0
  0
MTEXT
  5
26E
330
1F
100
AcDbEntity
  8
NOTES
100
AcDbMText
 10
108.6773113696
 20
188.210017778
 30
0.0
 40
2.6458333333
 41
0.0
 71
     2
 72
     1
  1
67
  7
SLDTEXTSTYLE0
 73
     1
 44
1.0
  0
MTEXT
  5
26F
330
1F
100
AcDbEntity
  8
NOTES
100
AcDbMText
 10
101.8873113696
 20
188.210017778
 30
0.0
 40
2.6458333333
 41
0.0
 71
     2
 72
     1
  1
68
  7
SLDTEXTSTYLE0
 73
     1
 44
1.0
  0
MTEXT
  5
270
330
1F
100
AcDbEntity
  8
NOTES
100
AcDbMText
 10
95.0973113696
 20
188.210017778
 30
0.0
 40
2.6458333333
 41
0.0
 71
     2
 72
     1
  1
69
  7
SLDTEXTSTYLE0
 73
     1
 44
1.0
  0
MTEXT
  5
271
330
1F
100
AcDbEntity
  8
NOTES
100
AcDbMText
 10
88.3073113696
 20
188.210017778
 30
0.0
 40
2.6458333333
 41
0.0
 71
     2
 72
     1
  1
70
  7
SLDTEXTSTYLE0
 73
     1
 44
1.0
  0
MTEXT
  5
272
330
1F
100
AcDbEntity
  8
NOTES
100
AcDbMText
 10
81.5173113696
 20
188.210017778
 30
0.0
 40
2.6458333333
 41
0.0
 71
     2
 72
     1
  1
71
  7
SLDTEXTSTYLE0
 73
     1
 44
1.0
  0
MTEXT
  5
273
330
1F
100
AcDbEntity
  8
NOTES
100
AcDbMText
 10
201.1873612482
 20
62.9935643576
 30
0.0
 40
2.6458333333
 41
0.0
 71
     2
 72
     1
  1
37
  7
SLDTEXTSTYLE0
 73
     1
 44
1.0
  0
MTEXT
  5
274
330
1F
100
AcDbEntity
  8
NOTES
100
AcDbMText
 10
201.1873612482
 20
69.9085698581
 30
0.0
 40
2.6458333333
 41
0.0
 71
     2
 72
     1
  1
38
  7
SLDTEXTSTYLE0
 73
     1
 44
1.0
  0
MTEXT
  5
275
330
1F
100
AcDbEntity
  8
NOTES
100
AcDbMText
 10
201.1873612482
 20
76.7135643576
 30
0.0
 40
2.6458333333
 41
0.0
 71
     2
 72
     1
  1
39
  7
SLDTEXTSTYLE0
 73
     1
 44
1.0
  0
MTEXT
  5
276
330
1F
100
AcDbEntity
  8
NOTES
100
AcDbMText
 10
201.1873612482
 20
83.5735643576
 30
0.0
 40
2.6458333333
 41
0.0
 71
     2
 72
     1
  1
40
  7
SLDTEXTSTYLE0
 73
     1
 44
1.0
  0
MTEXT
  5
277
330
1F
100
AcDbEntity
  8
NOTES
100
AcDbMText
 10
201.1873612482
 20
90.4335643576
 30
0.0
 40
2.6458333333
 41
0.0
 71
     2
 72
     1
  1
41
  7
SLDTEXTSTYLE0
 73
     1
 44
1.0
  0
MTEXT
  5
278
330
1F
100
AcDbEntity
  8
NOTES
100
AcDbMText
 10
201.1873612482
 20
97.2935643576
 30
0.0
 40
2.6458333333
 41
0.0
 71
     2
 72
     1
  1
42
  7
SLDTEXTSTYLE0
 73
     1
 44
1.0
  0
MTEXT
  5
279
330
1F
100
AcDbEntity
  8
NOTES
100
AcDbMText
 10
201.1873612482
 20
104.1535643576
 30
0.0
 40
2.6458333333
 41
0.0
 71
     2
 72
     1
  1
43
  7
SLDTEXTSTYLE0
 73
     1
 44
1.0
  0
MTEXT
  5
27A
330
1F
100
AcDbEntity
  8
NOTES
100
AcDbMText
 10
201.1873612482
 20
111.0135643576
 30
0.0
 40
2.6458333333
 41
0.0
 71
     2
 72
     1
  1
44
  7
SLDTEXTSTYLE0
 73
     1
 44
1.0
  0
MTEXT
  5
27B
330
1F
100
AcDbEntity
  8
NOTES
100
AcDbMText
 10
201.1873612482
 20
117.8735643576
 30
0.0
 40
2.6458333333
 41
0.0
 71
     2
 72
     1
  1
45
  7
SLDTEXTSTYLE0
 73
     1
 44
1.0
  0
MTEXT
  5
27C
330
1F
100
AcDbEntity
  8
NOTES
100
AcDbMText
 10
201.1873612482
 20
124.7335643576
 30
0.0
 40
2.6458333333
 41
0.0
 71
     2
 72
     1
  1
46
  7
SLDTEXTSTYLE0
 73
     1
 44
1.0
  0
MTEXT
  5
27D
330
1F
100
AcDbEntity
  8
NOTES
100
AcDbMText
 10
201.1873612482
 20
131.5935643576
 30
0.0
 40
2.6458333333
 41
0.0
 71
     2
 72
     1
  1
47
  7
SLDTEXTSTYLE0
 73
     1
 44
1.0
  0
MTEXT
  5
27E
330
1F
100
AcDbEntity
  8
NOTES
100
AcDbMText
 10
201.1873612482
 20
138.4535643576
 30
0.0
 40
2.6458333333
 41
0.0
 71
     2
 72
     1
  1
48
  7
SLDTEXTSTYLE0
 73
     1
 44
1.0
  0
MTEXT
  5
27F
330
1F
100
AcDbEntity
  8
NOTES
100
AcDbMText
 10
201.1873612482
 20
145.3135643576
 30
0.0
 40
2.6458333333
 41
0.0
 71
     2
 72
     1
  1
49
  7
SLDTEXTSTYLE0
 73
     1
 44
1.0
  0
MTEXT
  5
280
330
1F
100
AcDbEntity
  8
NOTES
100
AcDbMText
 10
201.1873612482
 20
152.1735643576
 30
0.0
 40
2.6458333333
 41
0.0
 71
     2
 72
     1
  1
50
  7
SLDTEXTSTYLE0
 73
     1
 44
1.0
  0
MTEXT
  5
281
330
1F
100
AcDbEntity
  8
NOTES
100
AcDbMText
 10
201.1873612482
 20
159.0335643576
 30
0.0
 40
2.6458333333
 41
0.0
 71
     2
 72
     1
  1
51
  7
SLDTEXTSTYLE0
 73
     1
 44
1.0
  0
MTEXT
  5
282
330
1F
100
AcDbEntity
  8
NOTES
100
AcDbMText
 10
201.1873612482
 20
165.8935643576
 30
0.0
 40
2.6458333333
 41
0.0
 71
     2
 72
     1
  1
52
  7
SLDTEXTSTYLE0
 73
     1
 44
1.0
  0
MTEXT
  5
283
330
1F
100
AcDbEntity
  8
NOTES
100
AcDbMText
 10
201.1873612482
 20
172.7535643576
 30
0.0
 40
2.6458333333
 41
0.0
 71
     2
 72
     1
  1
53
  7
SLDTEXTSTYLE0
 73
     1
 44
1.0
  0
MTEXT
  5
284
330
1F
100
AcDbEntity
  8
NOTES
100
AcDbMText
 10
64.1432762201
 20
62.9935643576
 30
0.0
 40
2.6458333333
 41
0.0
 71
     2
 72
     1
  1
18
  7
SLDTEXTSTYLE0
 73
     1
 44
1.0
  0
MTEXT
  5
285
330
1F
100
AcDbEntity
  8
NOTES
100
AcDbMText
 10
64.1432762201
 20
69.9085698581
 30
0.0
 40
2.6458333333
 41
0.0
 71
     2
 72
     1
  1
17
  7
SLDTEXTSTYLE0
 73
     1
 44
1.0
  0
MTEXT
  5
286
330
1F
100
AcDbEntity
  8
NOTES
100
AcDbMText
 10
64.1432762201
 20
76.7135643576
 30
0.0
 40
2.6458333333
 41
0.0
 71
     2
 72
     1
  1
16
  7
SLDTEXTSTYLE0
 73
     1
 44
1.0
  0
MTEXT
  5
287
330
1F
100
AcDbEntity
  8
NOTES
100
AcDbMText
 10
64.1432762201
 20
83.5735643576
 30
0.0
 40
2.6458333333
 41
0.0
 71
     2
 72
     1
  1
15
  7
SLDTEXTSTYLE0
 73
     1
 44
1.0
  0
MTEXT
  5
288
330
1F
100
AcDbEntity
  8
NOTES
100
AcDbMText
 10
64.1432762201
 20
90.4335643576
 30
0.0
 40
2.6458333333
 41
0.0
 71
     2
 72
     1
  1
14
  7
SLDTEXTSTYLE0
 73
     1
 44
1.0
  0
MTEXT
  5
289
330
1F
100
AcDbEntity
  8
NOTES
100
AcDbMText
 10
64.1432762201
 20
97.2935643576
 30
0.0
 40
2.6458333333
 41
0.0
 71
     2
 72
     1
  1
13
  7
SLDTEXTSTYLE0
 73
     1
 44
1.0
  0
MTEXT
  5
28A
330
1F
100
AcDbEntity
  8
NOTES
100
AcDbMText
 10
64.1432762201
 20
104.1535643576
 30
0.0
 40
2.6458333333
 41
0.0
 71
     2
 72
     1
  1
12
  7
SLDTEXTSTYLE0
 73
     1
 44
1.0
  0
MTEXT
  5
28B
330
1F
100
AcDbEntity
  8
NOTES
100
AcDbMText
 10
64.1432762201
 20
111.0135643576
 30
0.0
 40
2.6458333333
 41
0.0
 71
     2
 72
     1
  1
11
  7
SLDTEXTSTYLE0
 73
     1
 44
1.0
  0
MTEXT
  5
28C
330
1F
100
AcDbEntity
  8
NOTES
100
AcDbMText
 10
64.1432762201
 20
117.8735643576
 30
0.0
 40
2.6458333333
 41
0.0
 71
     2
 72
     1
  1
10
  7
SLDTEXTSTYLE0
 73
     1
 44
1.0
  0
MTEXT
  5
28D
330
1F
100
AcDbEntity
  8
NOTES
100
AcDbMText
 10
64.1310270316
 20
124.7335643576
 30
0.0
 40
2.6458333333
 41
0.0
 71
     2
 72
     1
  1
9
  7
SLDTEXTSTYLE0
 73
     1
 44
1.0
  0
MTEXT
  5
28E
330
1F
100
AcDbEntity
  8
NOTES
100
AcDbMText
 10
64.1310270316
 20
131.5935643576
 30
0.0
 40
2.6458333333
 41
0.0
 71
     2
 72
     1
  1
8
  7
SLDTEXTSTYLE0
 73
     1
 44
1.0
  0
MTEXT
  5
28F
330
1F
100
AcDbEntity
  8
NOTES
100
AcDbMText
 10
64.1310270316
 20
138.4535643576
 30
0.0
 40
2.6458333333
 41
0.0
 71
     2
 72
     1
  1
7
  7
SLDTEXTSTYLE0
 73
     1
 44
1.0
  0
MTEXT
  5
290
330
1F
100
AcDbEntity
  8
NOTES
100
AcDbMText
 10
64.1310270316
 20
145.3135643576
 30
0.0
 40
2.6458333333
 41
0.0
 71
     2
 72
     1
  1
6
  7
SLDTEXTSTYLE0
 73
     1
 44
1.0
  0
MTEXT
  5
291
330
1F
100
AcDbEntity
  8
NOTES
100
AcDbMText
 10
64.1310270316
 20
152.1735643576
 30
0.0
 40
2.6458333333
 41
0.0
 71
     2
 72
     1
  1
5
  7
SLDTEXTSTYLE0
 73
     1
 44
1.0
  0
MTEXT
  5
292
330
1F
100
AcDbEntity
  8
NOTES
100
AcDbMText
 10
64.1310270316
 20
159.0335643576
 30
0.0
 40
2.6458333333
 41
0.0
 71
     2
 72
     1
  1
4
  7
SLDTEXTSTYLE0
 73
     1
 44
1.0
  0
MTEXT
  5
293
330
1F
100
AcDbEntity
  8
NOTES
100
AcDbMText
 10
64.1310270316
 20
165.8935643576
 30
0.0
 40
2.6458333333
 41
0.0
 71
     2
 72
     1
  1
3
  7
SLDTEXTSTYLE0
 73
     1
 44
1.0
  0
MTEXT
  5
294
330
1F
100
AcDbEntity
  8
NOTES
100
AcDbMText
 10
64.1310270316
 20
172.7535643576
 30
0.0
 40
2.6458333333
 41
0.0
 71
     2
 72
     1
  1
2
  7
SLDTEXTSTYLE0
 73
     1
 44
1.0
  0
ENDSEC
  0
SECTION
  2
OBJECTS
  0
DICTIONARY
  5
C
330
0
100
AcDbDictionary
281
     1
  3
ACAD_GROUP
350
D
  3
ACAD_LAYOUT
350
1A
  3
ACAD_MLINESTYLE
350
17
  3
ACAD_PLOTSETTINGS
350
19
  3
ACAD_PLOTSTYLENAME
350
E
  3
ACAD_SCALELIST
350
47
  0
DICTIONARY
  5
D
102
{ACAD_REACTORS
330
C
102
}
330
C
100
AcDbDictionary
281
     1
  0
DICTIONARY
  5
1A
102
{ACAD_REACTORS
330
C
102
}
330
C
100
AcDbDictionary
281
     1
  3
Layout1
350
1E
  3
Layout2
350
26
  3
Model
350
22
  0
DICTIONARY
  5
17
102
{ACAD_REACTORS
330
C
102
}
330
C
100
AcDbDictionary
281
     1
  3
Standard
350
18
  0
DICTIONARY
  5
19
102
{ACAD_REACTORS
330
C
102
}
330
C
100
AcDbDictionary
281
     1
  0
ACDBDICTIONARYWDFLT
  5
E
102
{ACAD_REACTORS
330
C
102
}
330
C
100
AcDbDictionary
281
     1
  3
Normal
350
F
100
AcDbDictionaryWithDefault
340
F
  0
DICTIONARY
  5
47
102
{ACAD_REACTORS
330
C
102
}
330
C
100
AcDbDictionary
281
     1
  3
A0
350
48
  3
A1
350
49
  3
A2
350
4A
  3
A3
350
4B
  3
A4
350
4C
  3
A5
350
4D
  3
A6
350
4E
  3
A7
350
4F
  3
A8
350
50
  3
A9
350
51
  3
B0
350
52
  3
B1
350
53
  3
B2
350
54
  3
B3
350
55
  3
B4
350
56
  3
B5
350
57
  3
B6
350
58
  3
B7
350
59
  3
B8
350
5A
  3
B9
350
5B
  3
C0
350
5C
  3
C1
350
5D
  3
C2
350
5E
  3
C3
350
5F
  3
C4
350
60
  3
C5
350
61
  3
C6
350
62
  3
C7
350
63
  3
C8
350
64
  3
C9
350
65
  3
D0
350
66
  3
D1
350
67
  3
D2
350
68
  0
LAYOUT
  5
1E
102
{ACAD_REACTORS
330
1A
102
}
330
1A
100
AcDbPlotSettings
  1

  2
none_device
  4

  6

 40
0.0
 41
0.0
 42
0.0
 43
0.0
 44
0.0
 45
0.0
 46
0.0
 47
0.0
 48
0.0
 49
0.0
140
0.0
141
0.0
142
1.0
143
1.0
 70
   688
 72
     1
 73
     0
 74
     5
  7

 75
    16
147
1.0
148
0.0
149
0.0
100
AcDbLayout
  1
Layout1
 70
     1
 71
     1
 10
0.0
 20
0.0
 11
420.0
 21
297.0
 12
0.0
 22
0.0
 32
0.0
 14
1.0000000000E+20
 24
1.0000000000E+20
 34
1.0000000000E+20
 15
-1.0000000000E+20
 25
-1.0000000000E+20
 35
-1.0000000000E+20
146
0.0
 13
0.0
 23
0.0
 33
0.0
 16
1.0
 26
0.0
 36
0.0
 17
0.0
 27
1.0
 37
0.0
 76
     0
330
1B
  0
LAYOUT
  5
26
102
{ACAD_REACTORS
330
1A
102
}
330
1A
100
AcDbPlotSettings
  1

  2
none_device
  4

  6

 40
0.0
 41
0.0
 42
0.0
 43
0.0
 44
0.0
 45
0.0
 46
0.0
 47
0.0
 48
0.0
 49
0.0
140
0.0
141
0.0
142
1.0
143
1.0
 70
   688
 72
     1
 73
     0
 74
     5
  7

 75
    16
147
1.0
148
0.0
149
0.0
100
AcDbLayout
  1
Layout2
 70
     1
 71
     2
 10
0.0
 20
0.0
 11
0.0
 21
0.0
 12
0.0
 22
0.0
 32
0.0
 14
0.0
 24
0.0
 34
0.0
 15
0.0
 25
0.0
 35
0.0
146
0.0
 13
0.0
 23
0.0
 33
0.0
 16
1.0
 26
0.0
 36
0.0
 17
0.0
 27
1.0
 37
0.0
 76
     0
330
23
  0
LAYOUT
  5
22
102
{ACAD_REACTORS
330
1A
102
}
330
1A
100
AcDbPlotSettings
  1

  2
none_device
  4
Letter_(8.50_x_11.00_Inches)
  6

 40
6.35
 41
6.35
 42
6.35000508
 43
6.35000508
 44
215.9
 45
279.4
 46
0.0
 47
0.0
 48
0.0
 49
0.0
140
0.0
141
0.0
142
1.0
143
1.0
 70
  1712
 72
     1
 73
     0
 74
     0
  7

 75
     0
147
1.0
148
0.0
149
0.0
100
AcDbLayout
  1
Model
 70
     1
 71
     0
 10
0.0
 20
0.0
 11
279.4
 21
215.9
 12
0.0
 22
0.0
 32
0.0
 14
0.0
 24
0.0
 34
0.0
 15
279.4
 25
215.9
 35
0.0
146
0.0
 13
0.0
 23
0.0
 33
0.0
 16
1.0
 26
0.0
 36
0.0
 17
0.0
 27
1.0
 37
0.0
 76
     0
330
1F
331
29
  0
MLINESTYLE
  5
18
102
{ACAD_REACTORS
330
17
102
}
330
17
100
AcDbMlineStyle
  2
Standard
 70
     0
  3

 62
   256
 51
90.0
 52
90.0
 71
     2
 49
0.5
 62
   256
  6
BYLAYER
 49
-0.5
 62
   256
  6
BYLAYER
  0
ACDBPLACEHOLDER
  5
F
102
{ACAD_REACTORS
330
E
102
}
330
E
  0
SCALE
  5
48
102
{ACAD_REACTORS
330
47
102
}
330
47
100
AcDbScale
 70
     0
300
1:1
140
1.0
141
1.0
290
     1
  0
SCALE
  5
49
102
{ACAD_REACTORS
330
47
102
}
330
47
100
AcDbScale
 70
     0
300
1:2
140
1.0
141
2.0
290
     0
  0
SCALE
  5
4A
102
{ACAD_REACTORS
330
47
102
}
330
47
100
AcDbScale
 70
     0
300
1:4
140
1.0
141
4.0
290
     0
  0
SCALE
  5
4B
102
{ACAD_REACTORS
330
47
102
}
330
47
100
AcDbScale
 70
     0
300
1:5
140
1.0
141
5.0
290
     0
  0
SCALE
  5
4C
102
{ACAD_REACTORS
330
47
102
}
330
47
100
AcDbScale
 70
     0
300
1:8
140
1.0
141
8.0
290
     0
  0
SCALE
  5
4D
102
{ACAD_REACTORS
330
47
102
}
330
47
100
AcDbScale
 70
     0
300
1:10
140
1.0
141
10.0
290
     0
  0
SCALE
  5
4E
102
{ACAD_REACTORS
330
47
102
}
330
47
100
AcDbScale
 70
     0
300
1:16
140
1.0
141
16.0
290
     0
  0
SCALE
  5
4F
102
{ACAD_REACTORS
330
47
102
}
330
47
100
AcDbScale
 70
     0
300
1:20
140
1.0
141
20.0
290
     0
  0
SCALE
  5
50
102
{ACAD_REACTORS
330
47
102
}
330
47
100
AcDbScale
 70
     0
300
1:30
140
1.0
141
30.0
290
     0
  0
SCALE
  5
51
102
{ACAD_REACTORS
330
47
102
}
330
47
100
AcDbScale
 70
     0
300
1:40
140
1.0
141
40.0
290
     0
  0
SCALE
  5
52
102
{ACAD_REACTORS
330
47
102
}
330
47
100
AcDbScale
 70
     0
300
1:50
140
1.0
141
50.0
290
     0
  0
SCALE
  5
53
102
{ACAD_REACTORS
330
47
102
}
330
47
100
AcDbScale
 70
     0
300
1:100
140
1.0
141
100.0
290
     0
  0
SCALE
  5
54
102
{ACAD_REACTORS
330
47
102
}
330
47
100
AcDbScale
 70
     0
300
2:1
140
2.0
141
1.0
290
     0
  0
SCALE
  5
55
102
{ACAD_REACTORS
330
47
102
}
330
47
100
AcDbScale
 70
     0
300
4:1
140
4.0
141
1.0
290
     0
  0
SCALE
  5
56
102
{ACAD_REACTORS
330
47
102
}
330
47
100
AcDbScale
 70
     0
300
8:1
140
8.0
141
1.0
290
     0
  0
SCALE
  5
57
102
{ACAD_REACTORS
330
47
102
}
330
47
100
AcDbScale
 70
     0
300
10:1
140
10.0
141
1.0
290
     0
  0
SCALE
  5
58
102
{ACAD_REACTORS
330
47
102
}
330
47
100
AcDbScale
 70
     0
300
100:1
140
100.0
141
1.0
290
     0
  0
SCALE
  5
59
102
{ACAD_REACTORS
330
47
102
}
330
47
100
AcDbScale
 70
     0
300
1/128" = 1'-0"
140
0.0078125
141
12.0
290
     0
  0
SCALE
  5
5A
102
{ACAD_REACTORS
330
47
102
}
330
47
100
AcDbScale
 70
     0
300
1/64" = 1'-0"
140
0.015625
141
12.0
290
     0
  0
SCALE
  5
5B
102
{ACAD_REACTORS
330
47
102
}
330
47
100
AcDbScale
 70
     0
300
1/32" = 1'-0"
140
0.03125
141
12.0
290
     0
  0
SCALE
  5
5C
102
{ACAD_REACTORS
330
47
102
}
330
47
100
AcDbScale
 70
     0
300
1/16" = 1'-0"
140
0.0625
141
12.0
290
     0
  0
SCALE
  5
5D
102
{ACAD_REACTORS
330
47
102
}
330
47
100
AcDbScale
 70
     0
300
3/32" = 1'-0"
140
0.09375
141
12.0
290
     0
  0
SCALE
  5
5E
102
{ACAD_REACTORS
330
47
102
}
330
47
100
AcDbScale
 70
     0
300
1/8" = 1'-0"
140
0.125
141
12.0
290
     0
  0
SCALE
  5
5F
102
{ACAD_REACTORS
330
47
102
}
330
47
100
AcDbScale
 70
     0
300
3/16" = 1'-0"
140
0.1875
141
12.0
290
     0
  0
SCALE
  5
60
102
{ACAD_REACTORS
330
47
102
}
330
47
100
AcDbScale
 70
     0
300
1/4" = 1'-0"
140
0.25
141
12.0
290
     0
  0
SCALE
  5
61
102
{ACAD_REACTORS
330
47
102
}
330
47
100
AcDbScale
 70
     0
300
3/8" = 1'-0"
140
0.375
141
12.0
290
     0
  0
SCALE
  5
62
102
{ACAD_REACTORS
330
47
102
}
330
47
100
AcDbScale
 70
     0
300
1/2" = 1'-0"
140
0.5
141
12.0
290
     0
  0
SCALE
  5
63
102
{ACAD_REACTORS
330
47
102
}
330
47
100
AcDbScale
 70
     0
300
3/4" = 1'-0"
140
0.75
141
12.0
290
     0
  0
SCALE
  5
64
102
{ACAD_REACTORS
330
47
102
}
330
47
100
AcDbScale
 70
     0
300
1" = 1'-0"
140
1.0
141
12.0
290
     0
  0
SCALE
  5
65
102
{ACAD_REACTORS
330
47
102
}
330
47
100
AcDbScale
 70
     0
300
1-1/2" = 1'-0"
140
1.5
141
12.0
290
     0
  0
SCALE
  5
66
102
{ACAD_REACTORS
330
47
102
}
330
47
100
AcDbScale
 70
     0
300
3" = 1'-0"
140
3.0
141
12.0
290
     0
  0
SCALE
  5
67
102
{ACAD_REACTORS
330
47
102
}
330
47
100
AcDbScale
 70
     0
300
6" = 1'-0"
140
6.0
141
12.0
290
     0
  0
SCALE
  5
68
102
{ACAD_REACTORS
330
47
102
}
330
47
100
AcDbScale
 70
     0
300
1'-0" = 1'-0"
140
12.0
141
12.0
290
     0
  0
ENDSEC
  0
EOF
