  0
SECTION
  2
HEADER
  9
$ACADVER
  1
AC1015
  9
$ACADMAINTVER
 70
    20
  9
$DWGCODEPAGE
  3
ANSI_1252
  9
$INSBASE
 10
0.0
 20
0.0
 30
0.0
  9
$EXTMIN
 10
0.166645653294381
 20
0.1843708364851471
 30
-0.0000000000000132
  9
$EXTMAX
 10
7.786645587058719
 20
5.990085071734166
 30
0.0
  9
$LIMMIN
 10
0.0
 20
0.0
  9
$LIMMAX
 10
279.4
 20
215.9
  9
$ORTHOMODE
 70
     1
  9
$REGENMODE
 70
     1
  9
$FILLMODE
 70
     1
  9
$QTEXTMODE
 70
     0
  9
$MIRRTEXT
 70
     1
  9
$LTSCALE
 40
1.0
  9
$ATTMODE
 70
     1
  9
$TEXTSIZE
 40
2.5
  9
$TRACEWID
 40
1.0
  9
$TEXTSTYLE
  7
Standard
  9
$CLAYER
  8
0
  9
$CELTYPE
  6
ByLayer
  9
$CECOLOR
 62
   256
  9
$CELTSCALE
 40
1.0
  9
$DISPSILH
 70
     0
  9
$DIMSCALE
 40
1.0
  9
$DIMASZ
 40
3.174999999999999
  9
$DIMEXO
 40
1.27
  9
$DIMDLI
 40
3.75
  9
$DIMRND
 40
0.0
  9
$DIMDLE
 40
0.0
  9
$DIMEXE
 40
3.174999999999999
  9
$DIMTP
 40
0.0
  9
$DIMTM
 40
0.0
  9
$DIMTXT
 40
4.233333333333332
  9
$DIMCEN
 40
2.5
  9
$DIMTSZ
 40
0.0
  9
$DIMTOL
 70
     0
  9
$DIMLIM
 70
     0
  9
$DIMTIH
 70
     1
  9
$DIMTOH
 70
     1
  9
$DIMSE1
 70
     0
  9
$DIMSE2
 70
     0
  9
$DIMTAD
 70
     1
  9
$DIMZIN
 70
     0
  9
$DIMBLK
  1

  9
$DIMASO
 70
     1
  9
$DIMSHO
 70
     1
  9
$DIMPOST
  1

  9
$DIMAPOST
  1

  9
$DIMALT
 70
     0
  9
$DIMALTD
 70
     3
  9
$DIMALTF
 40
0.0393700787401575
  9
$DIMLFAC
 40
0.0285714285714286
  9
$DIMTOFL
 70
     1
  9
$DIMTVP
 40
0.0
  9
$DIMTIX
 70
     0
  9
$DIMSOXD
 70
     0
  9
$DIMSAH
 70
     0
  9
$DIMBLK1
  1

  9
$DIMBLK2
  1

  9
$DIMSTYLE
  2
ISO-25
  9
$DIMCLRD
 70
     0
  9
$DIMCLRE
 70
     0
  9
$DIMCLRT
 70
     0
  9
$DIMTFAC
 40
1.0
  9
$DIMGAP
 40
1.524
  9
$DIMJUST
 70
     0
  9
$DIMSD1
 70
     0
  9
$DIMSD2
 70
     0
  9
$DIMTOLJ
 70
     0
  9
$DIMTZIN
 70
     0
  9
$DIMALTZ
 70
     0
  9
$DIMALTTZ
 70
     0
  9
$DIMUPT
 70
     0
  9
$DIMDEC
 70
     3
  9
$DIMTDEC
 70
     3
  9
$DIMALTU
 70
     2
  9
$DIMALTTD
 70
     3
  9
$DIMTXSTY
  7
Standard
  9
$DIMAUNIT
 70
     0
  9
$DIMADEC
 70
     0
  9
$DIMALTRND
 40
0.0
  9
$DIMAZIN
 70
     0
  9
$DIMDSEP
 70
    44
  9
$DIMATFIT
 70
     3
  9
$DIMFRAC
 70
     0
  9
$DIMLDRBLK
  1

  9
$DIMLUNIT
 70
     2
  9
$DIMLWD
 70
    -2
  9
$DIMLWE
 70
    -2
  9
$DIMTMOVE
 70
     0
  9
$LUNITS
 70
     2
  9
$LUPREC
 70
     4
  9
$SKETCHINC
 40
1.0
  9
$FILLETRAD
 40
10.0
  9
$AUNITS
 70
     0
  9
$AUPREC
 70
     0
  9
$MENU
  1
.
  9
$ELEVATION
 40
0.0
  9
$PELEVATION
 40
0.0
  9
$THICKNESS
 40
0.0
  9
$LIMCHECK
 70
     0
  9
$CHAMFERA
 40
0.0
  9
$CHAMFERB
 40
0.0
  9
$CHAMFERC
 40
20.0
  9
$CHAMFERD
 40
0.0
  9
$SKPOLY
 70
     0
  9
$TDCREATE
 40
2455604.861047315
  9
$TDUCREATE
 40
2455605.194380648
  9
$TDUPDATE
 40
2455626.857734387
  9
$TDUUPDATE
 40
2455627.191067720
  9
$TDINDWG
 40
0.0090907407
  9
$TDUSRTIMER
 40
0.0090907407
  9
$USRTIMER
 70
     1
  9
$ANGBASE
 50
0.0
  9
$ANGDIR
 70
     0
  9
$PDMODE
 70
     0
  9
$PDSIZE
 40
-1.0
  9
$PLINEWID
 40
0.0
  9
$SPLFRAME
 70
     0
  9
$SPLINETYPE
 70
     6
  9
$SPLINESEGS
 70
     8
  9
$HANDSEED
  5
80F
  9
$SURFTAB1
 70
     6
  9
$SURFTAB2
 70
     6
  9
$SURFTYPE
 70
     6
  9
$SURFU
 70
     6
  9
$SURFV
 70
     6
  9
$UCSBASE
  2

  9
$UCSNAME
  2

  9
$UCSORG
 10
0.0
 20
0.0
 30
0.0
  9
$UCSXDIR
 10
1.0
 20
0.0
 30
0.0
  9
$UCSYDIR
 10
0.0
 20
1.0
 30
0.0
  9
$UCSORTHOREF
  2

  9
$UCSORTHOVIEW
 70
     0
  9
$UCSORGTOP
 10
0.0
 20
0.0
 30
0.0
  9
$UCSORGBOTTOM
 10
0.0
 20
0.0
 30
0.0
  9
$UCSORGLEFT
 10
0.0
 20
0.0
 30
0.0
  9
$UCSORGRIGHT
 10
0.0
 20
0.0
 30
0.0
  9
$UCSORGFRONT
 10
0.0
 20
0.0
 30
0.0
  9
$UCSORGBACK
 10
0.0
 20
0.0
 30
0.0
  9
$PUCSBASE
  2

  9
$PUCSNAME
  2

  9
$PUCSORG
 10
0.0
 20
0.0
 30
0.0
  9
$PUCSXDIR
 10
1.0
 20
0.0
 30
0.0
  9
$PUCSYDIR
 10
0.0
 20
1.0
 30
0.0
  9
$PUCSORTHOREF
  2

  9
$PUCSORTHOVIEW
 70
     0
  9
$PUCSORGTOP
 10
0.0
 20
0.0
 30
0.0
  9
$PUCSORGBOTTOM
 10
0.0
 20
0.0
 30
0.0
  9
$PUCSORGLEFT
 10
0.0
 20
0.0
 30
0.0
  9
$PUCSORGRIGHT
 10
0.0
 20
0.0
 30
0.0
  9
$PUCSORGFRONT
 10
0.0
 20
0.0
 30
0.0
  9
$PUCSORGBACK
 10
0.0
 20
0.0
 30
0.0
  9
$USERI1
 70
     0
  9
$USERI2
 70
     0
  9
$USERI3
 70
     0
  9
$USERI4
 70
     0
  9
$USERI5
 70
     0
  9
$USERR1
 40
0.0
  9
$USERR2
 40
0.0
  9
$USERR3
 40
0.0
  9
$USERR4
 40
0.0
  9
$USERR5
 40
0.0
  9
$WORLDVIEW
 70
     1
  9
$SHADEDGE
 70
     3
  9
$SHADEDIF
 70
    70
  9
$TILEMODE
 70
     1
  9
$MAXACTVP
 70
    64
  9
$PINSBASE
 10
0.0
 20
0.0
 30
0.0
  9
$PLIMCHECK
 70
     0
  9
$PEXTMIN
 10
1.000000000000000E+20
 20
1.000000000000000E+20
 30
1.000000000000000E+20
  9
$PEXTMAX
 10
-1.000000000000000E+20
 20
-1.000000000000000E+20
 30
-1.000000000000000E+20
  9
$PLIMMIN
 10
0.0
 20
0.0
  9
$PLIMMAX
 10
420.0
 20
297.0
  9
$UNITMODE
 70
     0
  9
$VISRETAIN
 70
     1
  9
$PLINEGEN
 70
     0
  9
$PSLTSCALE
 70
     1
  9
$TREEDEPTH
 70
  3020
  9
$CMLSTYLE
  2
Standard
  9
$CMLJUST
 70
     0
  9
$CMLSCALE
 40
20.0
  9
$PROXYGRAPHICS
 70
     1
  9
$MEASUREMENT
 70
     1
  9
$CELWEIGHT
370
    -1
  9
$ENDCAPS
280
     0
  9
$JOINSTYLE
280
     0
  9
$LWDISPLAY
290
     1
  9
$INSUNITS
 70
     4
  9
$HYPERLINKBASE
  1

  9
$STYLESHEET
  1
monochrome.ctb
  9
$XEDIT
290
     1
  9
$CEPSNTYPE
380
     0
  9
$PSTYLEMODE
290
     1
  9
$FINGERPRINTGUID
  2
{6A807ECA-CF86-4D08-BECA-8F4BC9C5D620}
  9
$VERSIONGUID
  2
{B62EF0B4-C614-45A1-B494-0B5E6D06107B}
  9
$EXTNAMES
290
     1
  9
$PSVPSCALE
 40
0.0
  9
$OLESTARTUP
290
     0
  0
ENDSEC
  0
SECTION
  2
CLASSES
  0
CLASS
  1
ACDBDICTIONARYWDFLT
  2
AcDbDictionaryWithDefault
  3
ObjectDBX Classes
 90
        0
280
     0
281
     0
  0
CLASS
  1
VISUALSTYLE
  2
AcDbVisualStyle
  3
ObjectDBX Classes
 90
     4095
280
     0
281
     0
  0
CLASS
  1
IMAGEDEF
  2
AcDbRasterImageDef
  3
ISM
 90
        0
280
     0
281
     0
  0
CLASS
  1
IMAGE
  2
AcDbRasterImage
  3
ISM
 90
     2175
280
     0
281
     1
  0
CLASS
  1
IMAGEDEF_REACTOR
  2
AcDbRasterImageDefReactor
  3
ISM
 90
        1
280
     0
281
     0
  0
CLASS
  1
SCALE
  2
AcDbScale
  3
ObjectDBX Classes
 90
     1153
280
     0
281
     0
  0
CLASS
  1
DICTIONARYVAR
  2
AcDbDictionaryVar
  3
ObjectDBX Classes
 90
        0
280
     0
281
     0
  0
CLASS
  1
MATERIAL
  2
AcDbMaterial
  3
ObjectDBX Classes
 90
     1153
280
     0
281
     0
  0
CLASS
  1
TABLESTYLE
  2
AcDbTableStyle
  3
ObjectDBX Classes
 90
     4095
280
     0
281
     0
  0
CLASS
  1
MLEADERSTYLE
  2
AcDbMLeaderStyle
  3
ACDB_MLEADERSTYLE_CLASS
 90
     4095
280
     0
281
     0
  0
CLASS
  1
RASTERVARIABLES
  2
AcDbRasterVariables
  3
ISM
 90
        0
280
     0
281
     0
  0
CLASS
  1
SORTENTSTABLE
  2
AcDbSortentsTable
  3
ObjectDBX Classes
 90
        0
280
     0
281
     0
  0
CLASS
  1
CELLSTYLEMAP
  2
AcDbCellStyleMap
  3
ObjectDBX Classes
 90
     1152
280
     0
281
     0
  0
CLASS
  1
ACDBPLACEHOLDER
  2
AcDbPlaceHolder
  3
ObjectDBX Classes
 90
        0
280
     0
281
     0
  0
CLASS
  1
LAYOUT
  2
AcDbLayout
  3
ObjectDBX Classes
 90
        0
280
     0
281
     0
  0
ENDSEC
  0
SECTION
  2
TABLES
  0
TABLE
  2
VPORT
  5
8
330
0
100
AcDbSymbolTable
 70
     1
  0
VPORT
  5
29
330
8
100
AcDbSymbolTableRecord
100
AcDbViewportTableRecord
  2
*Active
 70
     0
 10
0.0
 20
0.0
 11
1.0
 21
1.0
 12
3.97766467709755
 22
3.090121840569394
 13
0.0
 23
0.0
 14
10.0
 24
10.0
 15
10.0
 25
10.0
 16
0.0
 26
0.0
 36
1.0
 17
0.0
 27
0.0
 37
0.0
 40
5.87250570263979
 41
1.804298642533936
 42
50.0
 43
0.0
 44
0.0
 50
0.0
 51
0.0
 71
     0
 72
  2000
 73
     1
 74
     3
 75
     0
 76
     0
 77
     0
 78
     0
281
     0
 65
     1
110
0.0
120
0.0
130
0.0
111
1.0
121
0.0
131
0.0
112
0.0
122
1.0
132
0.0
 79
     0
146
0.0
  0
ENDTAB
  0
TABLE
  2
LTYPE
  5
5
330
0
100
AcDbSymbolTable
 70
     6
  0
LTYPE
  5
14
330
5
100
AcDbSymbolTableRecord
100
AcDbLinetypeTableRecord
  2
ByBlock
 70
     0
  3

 72
    65
 73
     0
 40
0.0
  0
LTYPE
  5
15
330
5
100
AcDbSymbolTableRecord
100
AcDbLinetypeTableRecord
  2
ByLayer
 70
     0
  3

 72
    65
 73
     0
 40
0.0
  0
LTYPE
  5
16
330
5
100
AcDbSymbolTableRecord
100
AcDbLinetypeTableRecord
  2
Continuous
 70
     0
  3
Solid line
 72
    65
 73
     0
 40
0.0
  0
LTYPE
  5
3B
330
5
100
AcDbSymbolTableRecord
100
AcDbLinetypeTableRecord
  2
HIDDEN
 70
     0
  3
Hidden __ __ __ __ __ __ __ __ __ __ __ __ __ __
 72
    65
 73
     2
 40
1.905
 49
1.27
 74
     0
 49
-0.635
 74
     0
  0
LTYPE
  5
3C
330
5
100
AcDbSymbolTableRecord
100
AcDbLinetypeTableRecord
  2
PHANTOM
 70
     0
  3
Phantom ______  __  __  ______  __  __  ______
 72
    65
 73
     6
 40
12.7
 49
6.349999999999999
 74
     0
 49
-1.27
 74
     0
 49
1.27
 74
     0
 49
-1.27
 74
     0
 49
1.27
 74
     0
 49
-1.27
 74
     0
  0
LTYPE
  5
3D
330
5
100
AcDbSymbolTableRecord
100
AcDbLinetypeTableRecord
  2
CENTER
 70
     0
  3
Center ____ _ ____ _ ____ _ ____ _ ____ _ ____
 72
    65
 73
     4
 40
10.16
 49
6.349999999999999
 74
     0
 49
-1.27
 74
     0
 49
1.27
 74
     0
 49
-1.27
 74
     0
  0
LTYPE
  5
3E
330
5
100
AcDbSymbolTableRecord
100
AcDbLinetypeTableRecord
  2
CENTERX2
 70
     0
  3
Center (2x) ________  __  ________  __  _____
 72
    65
 73
     4
 40
20.32
 49
12.7
 74
     0
 49
-2.54
 74
     0
 49
2.54
 74
     0
 49
-2.54
 74
     0
  0
LTYPE
  5
3F
330
5
100
AcDbSymbolTableRecord
100
AcDbLinetypeTableRecord
  2
DOT2
 70
     0
  3
Dot (.5x) ........................................
 72
    65
 73
     2
 40
0.635
 49
0.0
 74
     0
 49
-0.635
 74
     0
  0
ENDTAB
  0
TABLE
  2
LAYER
  5
2
102
{ACAD_XDICTIONARY
360
787
102
}
330
0
100
AcDbSymbolTable
 70
    13
  0
LAYER
  5
10
102
{ACAD_XDICTIONARY
360
76C
102
}
330
2
100
AcDbSymbolTableRecord
100
AcDbLayerTableRecord
  2
0
 70
     0
 62
     7
  6
Continuous
370
    -3
390
F
  0
LAYER
  5
44
102
{ACAD_XDICTIONARY
360
76E
102
}
330
2
100
AcDbSymbolTableRecord
100
AcDbLayerTableRecord
  2
4
 70
     0
 62
     7
  6
Continuous
370
    -3
390
F
  0
LAYER
  5
45
102
{ACAD_XDICTIONARY
360
770
102
}
330
2
100
AcDbSymbolTableRecord
100
AcDbLayerTableRecord
  2
5
 70
     0
 62
     5
  6
Continuous
370
    -3
390
F
  0
LAYER
  5
48
102
{ACAD_XDICTIONARY
360
772
102
}
330
2
100
AcDbSymbolTableRecord
100
AcDbLayerTableRecord
  2
8
 70
     0
 62
     7
  6
Continuous
370
    -3
390
F
  0
LAYER
  5
333
330
2
100
AcDbSymbolTableRecord
100
AcDbLayerTableRecord
  2
Defpoints
 70
     0
 62
     7
  6
Continuous
290
     0
370
    -3
390
F
  0
LAYER
  5
532
102
{ACAD_XDICTIONARY
360
774
102
}
330
2
100
AcDbSymbolTableRecord
100
AcDbLayerTableRecord
  2
Notes
 70
     0
 62
   130
  6
Continuous
370
    -3
390
F
1001
AcAecLayerStandard
1000

1000

  0
LAYER
  5
533
102
{ACAD_XDICTIONARY
360
776
102
}
330
2
100
AcDbSymbolTableRecord
100
AcDbLayerTableRecord
  2
Dimensions
 70
     0
 62
     5
  6
Continuous
370
    -3
390
F
1001
AcAecLayerStandard
1000

1000

  0
LAYER
  5
534
102
{ACAD_XDICTIONARY
360
778
102
}
330
2
100
AcDbSymbolTableRecord
100
AcDbLayerTableRecord
  2
Titleblock
 70
     0
 62
     7
  6
Continuous
370
    -3
390
F
1001
AcAecLayerStandard
1000

1000

  0
LAYER
  5
535
102
{ACAD_XDICTIONARY
360
77A
102
}
330
2
100
AcDbSymbolTableRecord
100
AcDbLayerTableRecord
  2
Detail
 70
     0
 62
     7
  6
Continuous
370
    -3
390
F
1001
AcAecLayerStandard
1000

1000

  0
LAYER
  5
536
102
{ACAD_XDICTIONARY
360
77C
102
}
330
2
100
AcDbSymbolTableRecord
100
AcDbLayerTableRecord
  2
PCB_Pads
 70
     0
 62
    52
  6
Continuous
370
    -3
390
F
1001
AcAecLayerStandard
1000

1000

  0
LAYER
  5
537
102
{ACAD_XDICTIONARY
360
77E
102
}
330
2
100
AcDbSymbolTableRecord
100
AcDbLayerTableRecord
  2
PCB_Soldermask
 70
     0
 62
    72
  6
Continuous
370
    -3
390
F
1001
AcAecLayerStandard
1000

1000

  0
LAYER
  5
538
102
{ACAD_XDICTIONARY
360
780
102
}
330
2
100
AcDbSymbolTableRecord
100
AcDbLayerTableRecord
  2
QFN_Bottom
 70
     0
 62
   212
  6
Continuous
370
    -3
390
F
1001
AcAecLayerStandard
1000

1000

  0
LAYER
  5
539
102
{ACAD_XDICTIONARY
360
782
102
}
330
2
100
AcDbSymbolTableRecord
100
AcDbLayerTableRecord
  2
QFN_Outline
 70
     0
 62
   190
  6
Continuous
370
    -3
390
F
1001
AcAecLayerStandard
1000

1000

  0
ENDTAB
  0
TABLE
  2
STYLE
  5
3
330
0
100
AcDbSymbolTable
 70
     4
  0
STYLE
  5
11
330
3
100
AcDbSymbolTableRecord
100
AcDbTextStyleTableRecord
  2
Standard
 70
     0
 40
0.0
 41
1.0
 50
0.0
 71
     0
 42
2.5
  3
txt
  4

  0
STYLE
  5
61
330
3
100
AcDbSymbolTableRecord
100
AcDbTextStyleTableRecord
  2
SLDTEXTSTYLE0
 70
     0
 40
0.0
 41
0.605
 50
0.0
 71
     0
 42
0.2
  3
TXT
  4

  0
STYLE
  5
99
330
3
100
AcDbSymbolTableRecord
100
AcDbTextStyleTableRecord
  2
SLDTEXTSTYLE1
 70
     0
 40
0.0
 41
0.6381856540084389
 50
0.0
 71
     0
 42
0.2
  3
TXT
  4

  0
STYLE
  5
A1
330
3
100
AcDbSymbolTableRecord
100
AcDbTextStyleTableRecord
  2
SLDTEXTSTYLE2
 70
     0
 40
0.0
 41
0.5629999999999999
 50
0.0
 71
     0
 42
0.2
  3
TXT
  4

  0
ENDTAB
  0
TABLE
  2
VIEW
  5
6
330
0
100
AcDbSymbolTable
 70
     0
  0
ENDTAB
  0
TABLE
  2
UCS
  5
7
330
0
100
AcDbSymbolTable
 70
     0
  0
ENDTAB
  0
TABLE
  2
APPID
  5
9
330
0
100
AcDbSymbolTable
 70
     8
  0
APPID
  5
12
330
9
100
AcDbSymbolTableRecord
100
AcDbRegAppTableRecord
  2
ACAD
 70
     0
  0
APPID
  5
32C
330
9
100
AcDbSymbolTableRecord
100
AcDbRegAppTableRecord
  2
ACAD_EXEMPT_FROM_CAD_STANDARDS
 70
     0
  0
APPID
  5
53C
330
9
100
AcDbSymbolTableRecord
100
AcDbRegAppTableRecord
  2
AcadAnnotative
 70
     0
  0
APPID
  5
53D
330
9
100
AcDbSymbolTableRecord
100
AcDbRegAppTableRecord
  2
ACAD_DSTYLE_DIMJAG
 70
     0
  0
APPID
  5
53E
330
9
100
AcDbSymbolTableRecord
100
AcDbRegAppTableRecord
  2
ACAD_DSTYLE_DIMTALN
 70
     0
  0
APPID
  5
53F
330
9
100
AcDbSymbolTableRecord
100
AcDbRegAppTableRecord
  2
AcAecLayerStandard
 70
     0
  0
APPID
  5
798
330
9
100
AcDbSymbolTableRecord
100
AcDbRegAppTableRecord
  2
ACAD_PSEXT
 70
     0
  0
APPID
  5
80E
330
9
100
AcDbSymbolTableRecord
100
AcDbRegAppTableRecord
  2
ACAD_MLEADERVER
 70
     0
  0
ENDTAB
  0
TABLE
  2
DIMSTYLE
  5
A
330
0
100
AcDbSymbolTable
 70
    16
100
AcDbDimStyleTable
 71
     1
340
27
  0
DIMSTYLE
105
27
330
A
100
AcDbSymbolTableRecord
100
AcDbDimStyleTableRecord
  2
ISO-25
 70
     0
 41
2.5
 42
0.625
 43
3.75
 44
1.25
 73
     0
 74
     0
 77
     1
 78
     8
140
2.5
141
2.5
143
0.03937007874016
147
0.625
171
     3
172
     1
271
     2
272
     2
274
     3
278
    44
283
     0
284
     8
340
11
  0
DIMSTYLE
105
1E8
330
A
100
AcDbSymbolTableRecord
100
AcDbDimStyleTableRecord
  2
SLDDIMSTYLE0
 70
     0
 41
3.174999999999999
 44
0.0
 45
0.000000001
 78
    12
140
3.081982421874999
144
0.0285714285714286
147
0.77049560546875
173
     1
271
     1
272
     3
284
    12
340
61
  0
DIMSTYLE
105
1F4
330
A
100
AcDbSymbolTableRecord
100
AcDbDimStyleTableRecord
  2
SLDDIMSTYLE1
 70
     0
 41
3.174999999999999
 44
0.0
 45
0.000000001
 78
     4
140
3.081982421874999
144
0.0285714285714286
147
0.77049560546875
173
     1
271
     2
272
     3
284
    12
340
61
  0
DIMSTYLE
105
237
330
A
100
AcDbSymbolTableRecord
100
AcDbDimStyleTableRecord
  2
SLDDIMSTYLE2
 70
     0
 41
3.174999999999999
 44
0.0
 45
0.000000001
 78
    12
140
3.081982421874999
144
0.0285714285714286
147
0.77049560546875
173
     1
271
     2
272
     3
284
    12
340
61
  0
DIMSTYLE
105
24F
330
A
100
AcDbSymbolTableRecord
100
AcDbDimStyleTableRecord
  2
SLDDIMSTYLE3
 70
     0
 41
3.174999999999999
 44
0.0
 45
0.000000001
 78
    12
140
3.081982421874999
144
0.0285714285714286
147
0.77049560546875
173
     1
272
     3
284
    12
340
61
  0
DIMSTYLE
105
266
330
A
100
AcDbSymbolTableRecord
100
AcDbDimStyleTableRecord
  2
SLDDIMSTYLE4
 70
     0
 41
3.174999999999999
 44
0.0
 45
0.000000001
140
0.0
146
3.174999999999999
147
0.0
173
     1
271
     0
272
     0
340
11
  0
DIMSTYLE
105
26D
330
A
100
AcDbSymbolTableRecord
100
AcDbDimStyleTableRecord
  2
SLDDIMSTYLE5
 70
     0
 41
1.27
 44
0.0
 45
0.000000001
140
0.0
146
1.27
147
0.0
173
     1
271
     0
272
     0
340
11
341
26E
343
26E
344
26E
  0
DIMSTYLE
105
284
330
A
100
AcDbSymbolTableRecord
100
AcDbDimStyleTableRecord
  2
SLDDIMSTYLE6
 70
     0
 41
6.096
 44
0.0
 45
0.000000001
140
0.0
146
6.096
147
0.0
173
     1
271
     0
272
     0
340
11
341
285
343
285
344
285
  0
DIMSTYLE
105
2AA
330
A
100
AcDbSymbolTableRecord
100
AcDbDimStyleTableRecord
  2
SLDDIMSTYLE7
 70
     0
 41
3.174999999999999
 44
0.0
 45
0.000000001
 78
     4
140
3.081982421874999
144
0.025
147
0.77049560546875
173
     1
271
     2
272
     3
284
    12
340
61
  0
DIMSTYLE
105
2B6
330
A
100
AcDbSymbolTableRecord
100
AcDbDimStyleTableRecord
  2
SLDDIMSTYLE8
 70
     0
 41
3.174999999999999
 44
0.0
 45
0.000000001
 78
     4
140
3.081982421874999
144
0.025
147
0.77049560546875
173
     1
271
     2
272
     3
284
    12
340
61
  0
DIMSTYLE
105
2C2
330
A
100
AcDbSymbolTableRecord
100
AcDbDimStyleTableRecord
  2
SLDDIMSTYLE9
 70
     0
 41
3.174999999999999
 44
0.0
 45
0.000000001
 78
    12
140
3.081982421874999
144
0.025
147
0.77049560546875
173
     1
272
     3
284
    12
340
61
  0
DIMSTYLE
105
2CC
330
A
100
AcDbSymbolTableRecord
100
AcDbDimStyleTableRecord
  2
SLDDIMSTYLE10
 70
     0
 41
3.174999999999999
 44
0.0
 45
0.000000001
 78
    12
140
3.081982421874999
144
0.025
147
0.77049560546875
173
     1
271
     2
272
     3
284
    12
340
61
  0
DIMSTYLE
105
2D9
330
A
100
AcDbSymbolTableRecord
100
AcDbDimStyleTableRecord
  2
SLDDIMSTYLE11
 70
     0
 41
3.174999999999999
 44
0.0
 45
0.000000001
 78
    12
140
3.081982421874999
144
0.025
147
0.77049560546875
173
     1
271
     2
272
     3
284
    12
340
61
  0
DIMSTYLE
105
2E5
330
A
100
AcDbSymbolTableRecord
100
AcDbDimStyleTableRecord
  2
SLDDIMSTYLE12
 70
     0
 41
3.174999999999999
 44
0.0
 45
0.000000001
 78
     4
140
3.081982421874999
144
0.025
147
0.77049560546875
173
     1
271
     3
272
     3
284
    12
340
61
  0
DIMSTYLE
105
53A
330
A
100
AcDbSymbolTableRecord
100
AcDbDimStyleTableRecord
  2
Standard
 70
     0
340
11
  0
DIMSTYLE
105
53B
330
A
100
AcDbSymbolTableRecord
100
AcDbDimStyleTableRecord
  2
Annotative
 70
     0
 40
0.0
340
11
1001
AcadAnnotative
1000
AnnotativeData
1002
{
1070
     1
1070
     1
1002
}
1001
ACAD_DSTYLE_DIMJAG
1070
   388
1040
1.5
1001
ACAD_DSTYLE_DIMTALN
1070
   392
1070
     0
  0
ENDTAB
  0
TABLE
  2
BLOCK_RECORD
  5
1
330
0
100
AcDbSymbolTable
 70
     9
  0
BLOCK_RECORD
  5
1F
102
{ACAD_XDICTIONARY
360
602
102
}
330
1
100
AcDbSymbolTableRecord
100
AcDbBlockTableRecord
  2
*Model_Space
340
22
  0
BLOCK_RECORD
  5
1B
330
1
100
AcDbSymbolTableRecord
100
AcDbBlockTableRecord
  2
*Paper_Space
340
1E
  0
BLOCK_RECORD
  5
23
330
1
100
AcDbSymbolTableRecord
100
AcDbBlockTableRecord
  2
*Paper_Space0
340
26
  0
BLOCK_RECORD
  5
5E
330
1
100
AcDbSymbolTableRecord
100
AcDbBlockTableRecord
  2
SW_NOTE_0
340
0
  0
BLOCK_RECORD
  5
A4
330
1
100
AcDbSymbolTableRecord
100
AcDbBlockTableRecord
  2
SW_NOTE_1
340
0
  0
BLOCK_RECORD
  5
25A
330
1
100
AcDbSymbolTableRecord
100
AcDbBlockTableRecord
  2
SW_NOTE_2
340
0
  0
BLOCK_RECORD
  5
260
330
1
100
AcDbSymbolTableRecord
100
AcDbBlockTableRecord
  2
SW_NOTE_3
340
0
  0
BLOCK_RECORD
  5
26E
330
1
100
AcDbSymbolTableRecord
100
AcDbBlockTableRecord
  2
_DOT
340
0
102
{BLKREFS
331
600
331
60D
102
}
  0
BLOCK_RECORD
  5
279
330
1
100
AcDbSymbolTableRecord
100
AcDbBlockTableRecord
  2
SW_NOTE_4
340
0
  0
BLOCK_RECORD
  5
285
330
1
100
AcDbSymbolTableRecord
100
AcDbBlockTableRecord
  2
_NONE
340
0
  0
BLOCK_RECORD
  5
2FE
330
1
100
AcDbSymbolTableRecord
100
AcDbBlockTableRecord
  2
SW_NOTE_5
340
0
  0
ENDTAB
  0
ENDSEC
  0
SECTION
  2
BLOCKS
  0
BLOCK
  5
20
330
1F
100
AcDbEntity
  8
0
100
AcDbBlockBegin
  2
*Model_Space
 70
     0
 10
0.0
 20
0.0
 30
0.0
  3
*Model_Space
  1

  0
ENDBLK
  5
21
330
1F
100
AcDbEntity
  8
0
100
AcDbBlockEnd
  0
BLOCK
  5
1C
330
1B
100
AcDbEntity
 67
     1
  8
0
100
AcDbBlockBegin
  2
*Paper_Space
 70
     0
 10
0.0
 20
0.0
 30
0.0
  3
*Paper_Space
  1

  0
ENDBLK
  5
1D
330
1B
100
AcDbEntity
 67
     1
  8
0
100
AcDbBlockEnd
  0
BLOCK
  5
24
330
23
100
AcDbEntity
 67
     1
  8
0
100
AcDbBlockBegin
  2
*Paper_Space0
 70
     0
 10
0.0
 20
0.0
 30
0.0
  3
*Paper_Space0
  1

  0
ENDBLK
  5
25
330
23
100
AcDbEntity
 67
     1
  8
0
100
AcDbBlockEnd
  0
BLOCK
  5
5F
330
5E
100
AcDbEntity
  8
0
100
AcDbBlockBegin
  2
SW_NOTE_0
 70
     0
 10
0.0
 20
0.0
 30
0.0
  3
SW_NOTE_0
  1

  0
MTEXT
  5
84
330
5E
100
AcDbEntity
  8
4
 62
     0
100
AcDbMText
 10
0.0
 20
2.728526715850665
 30
0.0
 40
2.116666666666666
 41
0.0
 71
     1
 72
     1
  1
Notes: (Unless Otherwise Specified).
  7
SLDTEXTSTYLE0
 73
     1
 44
1.0
1001
ACAD
1000
MTEXTBEGIN
1070
    73
1070
     1
1070
    44
1040
1.0
1070
    74
1070
     0
1000
MTEXTEND
  0
MTEXT
  5
85
330
5E
100
AcDbEntity
  8
4
 62
     0
100
AcDbMText
 10
0.0
 20
-0.0936954722644615
 30
0.0
 40
2.116666666666666
 41
0.0
 71
     1
 72
     1
  1
  1) DIMENSIONS ARE PRESENTED ONLY AS A GUIDELINE. 
  7
SLDTEXTSTYLE0
 73
     1
 44
1.0
1001
ACAD
1000
MTEXTBEGIN
1070
    73
1070
     1
1070
    44
1040
1.0
1070
    74
1070
     0
1000
MTEXTEND
  0
MTEXT
  5
86
330
5E
100
AcDbEntity
  8
4
 62
     0
100
AcDbMText
 10
0.0
 20
-2.915917660379581
 30
0.0
 40
2.116666666666666
 41
0.0
 71
     1
 72
     1
  1
      DESIGNERS SHOULD USE THEIR OWN KNOWLEDGE BASE WHEN 
  7
SLDTEXTSTYLE0
 73
     1
 44
1.0
1001
ACAD
1000
MTEXTBEGIN
1070
    73
1070
     1
1070
    44
1040
1.0
1070
    74
1070
     0
1000
MTEXTEND
  0
MTEXT
  5
87
330
5E
100
AcDbEntity
  8
4
 62
     0
100
AcDbMText
 10
0.0
 20
-5.738139848494701
 30
0.0
 40
2.116666666666666
 41
0.0
 71
     1
 72
     1
  1
      DESIGNING THE PCB.
  7
SLDTEXTSTYLE0
 73
     1
 44
1.0
1001
ACAD
1000
MTEXTBEGIN
1070
    73
1070
     1
1070
    44
1040
1.0
1070
    74
1070
     0
1000
MTEXTEND
  0
MTEXT
  5
88
330
5E
100
AcDbEntity
  8
4
 62
     0
100
AcDbMText
 10
0.0
 20
-8.56036203660982
 30
0.0
 40
2.116666666666666
 41
0.0
 71
     1
 72
     1
  1
  2) SURROUND EACH SIDE OF I/O PERIMETER PADS WITH 0.060~0.075 mm (NSMD) SOLDER MASK 
  7
SLDTEXTSTYLE0
 73
     1
 44
1.0
1001
ACAD
1000
MTEXTBEGIN
1070
    73
1070
     1
1070
    44
1040
1.0
1070
    74
1070
     0
1000
MTEXTEND
  0
MTEXT
  5
89
330
5E
100
AcDbEntity
  8
4
 62
     0
100
AcDbMText
 10
0.0
 20
-11.38258422472494
 30
0.0
 40
2.116666666666666
 41
0.0
 71
     1
 72
     1
  1
      OPENING (2.4~3.0mils). OPTIONALLY OK TO USE RECTANGLE (NSMD) MASK OPENING AROUND I/O PADS.
  7
SLDTEXTSTYLE0
 73
     1
 44
1.0
1001
ACAD
1000
MTEXTBEGIN
1070
    73
1070
     1
1070
    44
1040
1.0
1070
    74
1070
     0
1000
MTEXTEND
  0
MTEXT
  5
8A
330
5E
100
AcDbEntity
  8
4
 62
     0
100
AcDbMText
 10
0.0
 20
-14.20480641284006
 30
0.0
 40
2.116666666666666
 41
0.0
 71
     1
 72
     1
  1
  3) ROUNDED PCB LAND PADS REDUCE SOLDER BRIDGING.
  7
SLDTEXTSTYLE0
 73
     1
 44
1.0
1001
ACAD
1000
MTEXTBEGIN
1070
    73
1070
     1
1070
    44
1040
1.0
1070
    74
1070
     0
1000
MTEXTEND
  0
MTEXT
  5
8B
330
5E
100
AcDbEntity
  8
4
 62
     0
100
AcDbMText
 10
0.0
 20
-17.02702860095518
 30
0.0
 40
2.116666666666666
 41
0.0
 71
     1
 72
     1
  1
  4) PCB LANDS SHOULD BE 0.2mm LONGER THEN THE PACKAGE I/O PADS.
  7
SLDTEXTSTYLE0
 73
     1
 44
1.0
1001
ACAD
1000
MTEXTBEGIN
1070
    73
1070
     1
1070
    44
1040
1.0
1070
    74
1070
     0
1000
MTEXTEND
  0
MTEXT
  5
8C
330
5E
100
AcDbEntity
  8
4
 62
     0
100
AcDbMText
 10
0.0
 20
-19.8492507890703
 30
0.0
 40
2.116666666666666
 41
0.0
 71
     1
 72
     1
  1
  5) THE WIDTH OF PERIMETER PCB PADS SHOULD MATCH (1:1) THE SAME WIDTH AS THE PACKAGE PADS.
  7
SLDTEXTSTYLE0
 73
     1
 44
1.0
1001
ACAD
1000
MTEXTBEGIN
1070
    73
1070
     1
1070
    44
1040
1.0
1070
    74
1070
     0
1000
MTEXTEND
  0
MTEXT
  5
8D
330
5E
100
AcDbEntity
  8
4
 62
     0
100
AcDbMText
 10
0.0
 20
-22.67147297718542
 30
0.0
 40
2.116666666666666
 41
0.0
 71
     1
 72
     1
  1
  6) REFER TO INDUSTRY REFERENCES SUCH AS IPC-SM-782 FOR PCB LAND PATTERN DESIGN.
  7
SLDTEXTSTYLE0
 73
     1
 44
1.0
1001
ACAD
1000
MTEXTBEGIN
1070
    73
1070
     1
1070
    44
1040
1.0
1070
    74
1070
     0
1000
MTEXTEND
  0
MTEXT
  5
8E
330
5E
100
AcDbEntity
  8
4
 62
     0
100
AcDbMText
 10
0.0
 20
-25.49369516530054
 30
0.0
 40
2.116666666666666
 41
0.0
 71
     1
 72
     1
  1
  7) THERMAL GROUND PADS MAY BE CHANGED TO SUITE REQUIREMENTS OF THE DESIGNER.
  7
SLDTEXTSTYLE0
 73
     1
 44
1.0
1001
ACAD
1000
MTEXTBEGIN
1070
    73
1070
     1
1070
    44
1040
1.0
1070
    74
1070
     0
1000
MTEXTEND
  0
MTEXT
  5
8F
330
5E
100
AcDbEntity
  8
4
 62
     0
100
AcDbMText
 10
10.0
 20
-28.31591735341566
 30
0.0
 40
2.116666666666666
 41
0.0
 71
     1
 72
     1
  1
A. MAKE COPPER THERMAL PAD AS LARGE AS POSSIBLE.
  7
SLDTEXTSTYLE0
 73
     1
 44
1.0
1001
ACAD
1000
MTEXTBEGIN
1070
    73
1070
     1
1070
    44
1040
1.0
1070
    74
1070
     0
1000
MTEXTEND
  0
MTEXT
  5
90
330
5E
100
AcDbEntity
  8
4
 62
     0
100
AcDbMText
 10
10.0
 20
-31.13813954153078
 30
0.0
 40
2.116666666666666
 41
0.0
 71
     1
 72
     1
  1
B. DRILL MULTIPLE THERMAL VIAS 0.25~0.33mm DIAMETER USING 0.8~1.2mm PITCH GRID.
  7
SLDTEXTSTYLE0
 73
     1
 44
1.0
1001
ACAD
1000
MTEXTBEGIN
1070
    73
1070
     1
1070
    44
1040
1.0
1070
    74
1070
     0
1000
MTEXTEND
  0
MTEXT
  5
91
330
5E
100
AcDbEntity
  8
4
 62
     0
100
AcDbMText
 10
10.0
 20
-33.96036172964591
 30
0.0
 40
2.116666666666666
 41
0.0
 71
     1
 72
     1
  1
C. PLATE THERMAL VIA BARRELS WITH 1-OUNCE COPPER (18µm).
  7
SLDTEXTSTYLE0
 73
     1
 44
1.0
1001
ACAD
1000
MTEXTBEGIN
1070
    73
1070
     1
1070
    44
1040
1.0
1070
    74
1070
     0
1000
MTEXTEND
  0
MTEXT
  5
92
330
5E
100
AcDbEntity
  8
4
 62
     0
100
AcDbMText
 10
10.0
 20
-36.78258391776103
 30
0.0
 40
2.116666666666666
 41
0.0
 71
     1
 72
     1
  1
D. TENT (COVER) THERMAL VIAS WITH SOLDER MASK 0.1mm LARGER THEN THE VIA DIAMETER.
  7
SLDTEXTSTYLE0
 73
     1
 44
1.0
1001
ACAD
1000
MTEXTBEGIN
1070
    73
1070
     1
1070
    44
1040
1.0
1070
    74
1070
     0
1000
MTEXTEND
  0
MTEXT
  5
93
330
5E
100
AcDbEntity
  8
4
 62
     0
100
AcDbMText
 10
0.0
 20
-39.60480610587615
 30
0.0
 40
2.116666666666666
 41
0.0
 71
     1
 72
     1
  1
   8) STENCIL DESIGN MAY BE CHANGED TO SUITE REQUIREMENTS OF THE DESIGNER.
  7
SLDTEXTSTYLE0
 73
     1
 44
1.0
1001
ACAD
1000
MTEXTBEGIN
1070
    73
1070
     1
1070
    44
1040
1.0
1070
    74
1070
     0
1000
MTEXTEND
  0
MTEXT
  5
94
330
5E
100
AcDbEntity
  8
4
 62
     0
100
AcDbMText
 10
0.0
 20
-42.42702829399126
 30
0.0
 40
2.116666666666666
 41
0.0
 71
     1
 72
     1
  1
             A. LASER CUT STENCIL 0.125mm (5mil) THICK. APERTURE SIZE-TO-LAND RATIO OF 1:1.
  7
SLDTEXTSTYLE0
 73
     1
 44
1.0
1001
ACAD
1000
MTEXTBEGIN
1070
    73
1070
     1
1070
    44
1040
1.0
1070
    74
1070
     0
1000
MTEXTEND
  0
MTEXT
  5
95
330
5E
100
AcDbEntity
  8
4
 62
     0
100
AcDbMText
 10
0.0
 20
-45.24925048210638
 30
0.0
 40
2.116666666666666
 41
0.0
 71
     1
 72
     1
  1
             B. THE SOLDER PASTE OPENING IN THE THERMAL PAD AREA SHOULD BE A MATRIX ARRAY OF
  7
SLDTEXTSTYLE0
 73
     1
 44
1.0
1001
ACAD
1000
MTEXTBEGIN
1070
    73
1070
     1
1070
    44
1040
1.0
1070
    74
1070
     0
1000
MTEXTEND
  0
MTEXT
  5
96
330
5E
100
AcDbEntity
  8
4
 62
     0
100
AcDbMText
 10
0.0
 20
-48.0714726702215
 30
0.0
 40
2.116666666666666
 41
0.0
 71
     1
 72
     1
  1
                 SMALLER APERTURES INSTEAD OF ONE LARGE APERTURE TO CONTROL PASTE AMOUNTS.
  7
SLDTEXTSTYLE0
 73
     1
 44
1.0
1001
ACAD
1000
MTEXTBEGIN
1070
    73
1070
     1
1070
    44
1040
1.0
1070
    74
1070
     0
1000
MTEXTEND
  0
MTEXT
  5
97
330
5E
100
AcDbEntity
  8
4
 62
     0
100
AcDbMText
 10
0.0
 20
-50.89369485833662
 30
0.0
 40
2.116666666666666
 41
0.0
 71
     1
 72
     1
  1
             C. APPLY 50% TO 80% SOLDER PASTE COVERAGE IN THE THERMAL PAD AREA.
  7
SLDTEXTSTYLE0
 73
     1
 44
1.0
1001
ACAD
1000
MTEXTBEGIN
1070
    73
1070
     1
1070
    44
1040
1.0
1070
    74
1070
     0
1000
MTEXTEND
  0
ENDBLK
  5
60
330
5E
100
AcDbEntity
  8
0
100
AcDbBlockEnd
  0
BLOCK
  5
A5
330
A4
100
AcDbEntity
  8
0
100
AcDbBlockBegin
  2
SW_NOTE_1
 70
     0
 10
0.0
 20
0.0
 30
0.0
  3
SW_NOTE_1
  1

  0
MTEXT
  5
A7
330
A4
100
AcDbEntity
  8
8
 62
     0
100
AcDbMText
 10
0.0
 20
2.046395036887995
 30
0.0
 40
1.587499999999999
 41
0.0
 71
     1
 72
     1
  1
SCALE
  7
SLDTEXTSTYLE0
 73
     1
 44
1.0
1001
ACAD
1000
MTEXTBEGIN
1070
    73
1070
     1
1070
    44
1040
1.0
1070
    74
1070
     0
1000
MTEXTEND
  0
MTEXT
  5
A8
330
A4
100
AcDbEntity
  8
8
 62
     0
100
AcDbMText
 10
0.0
 20
-0.2436260667534398
 30
0.0
 40
2.116666666666666
 41
0.0
 71
     1
 72
     1
  1
        35:1 
  7
SLDTEXTSTYLE0
 73
     1
 44
1.0
1001
ACAD
1000
MTEXTBEGIN
1070
    73
1070
     1
1070
    44
1040
1.0
1070
    74
1070
     0
1000
MTEXTEND
  0
ENDBLK
  5
A6
330
A4
100
AcDbEntity
  8
0
100
AcDbBlockEnd
  0
BLOCK
  5
25B
330
25A
100
AcDbEntity
  8
0
100
AcDbBlockBegin
  2
SW_NOTE_2
 70
     0
 10
0.0
 20
0.0
 30
0.0
  3
SW_NOTE_2
  1

  0
MTEXT
  5
25D
330
25A
100
AcDbEntity
  8
5
 62
     0
100
AcDbMText
 10
0.0
 20
4.092790073775997
 30
0.0
 40
3.174999999999999
 41
0.0
 71
     1
 72
     1
  1
RECOMMENDED PC BOARD LAYOUT
  7
SLDTEXTSTYLE0
 73
     1
 44
1.0
1001
ACAD
1000
MTEXTBEGIN
1070
    73
1070
     1
1070
    44
1040
1.0
1070
    74
1070
     0
1000
MTEXTEND
  0
MTEXT
  5
25E
330
25A
100
AcDbEntity
  8
5
 62
     0
100
AcDbMText
 10
17.52129383385181
 20
-0.1405432083966818
 30
0.0
 40
3.174999999999999
 41
0.0
 71
     1
 72
     1
  1
DIMENSIONS IN MM
  7
SLDTEXTSTYLE0
 73
     1
 44
1.0
1001
ACAD
1000
MTEXTBEGIN
1070
    73
1070
     1
1070
    44
1040
1.0
1070
    74
1070
     0
1000
MTEXTEND
  0
ENDBLK
  5
25C
330
25A
100
AcDbEntity
  8
0
100
AcDbBlockEnd
  0
BLOCK
  5
261
330
260
100
AcDbEntity
  8
0
100
AcDbBlockBegin
  2
SW_NOTE_3
 70
     0
 10
0.0
 20
0.0
 30
0.0
  3
SW_NOTE_3
  1

  0
MTEXT
  5
263
330
260
100
AcDbEntity
  8
5
 62
     0
100
AcDbMText
 10
0.5009549405656511
 20
1.525513955120738
 30
0.0
 40
3.174999999999999
 41
0.0
 71
     1
 72
     1
  1
COMPONENT
  7
SLDTEXTSTYLE0
 73
     1
 44
1.0
1001
ACAD
1000
MTEXTBEGIN
1070
    73
1070
     1
1070
    44
1040
1.0
1070
    74
1070
     0
1000
MTEXTEND
  0
MTEXT
  5
264
330
260
100
AcDbEntity
  8
5
 62
     0
100
AcDbMText
 10
5.087065763422077
 20
-2.707819327051941
 30
0.0
 40
3.174999999999999
 41
0.0
 71
     1
 72
     1
  1
OUTLINE
  7
SLDTEXTSTYLE0
 73
     1
 44
1.0
1001
ACAD
1000
MTEXTBEGIN
1070
    73
1070
     1
1070
    44
1040
1.0
1070
    74
1070
     0
1000
MTEXTEND
  0
ENDBLK
  5
262
330
260
100
AcDbEntity
  8
0
100
AcDbBlockEnd
  0
BLOCK
  5
26F
330
26E
100
AcDbEntity
  8
0
100
AcDbBlockBegin
  2
_DOT
 70
     0
 10
0.0
 20
0.0
 30
0.0
  3
_DOT
  1

  0
POLYLINE
  5
271
330
26E
100
AcDbEntity
  8
0
  6
ByBlock
 62
     0
100
AcDb2dPolyline
 66
     1
 10
0.0
 20
0.0
 30
0.0
 70
     1
 40
0.5
 41
0.5
  0
VERTEX
  5
273
330
271
100
AcDbEntity
  8
0
  6
ByBlock
 62
     0
100
AcDbVertex
100
AcDb2dVertex
 10
-0.25
 20
0.0
 30
0.0
 42
1.0
  0
VERTEX
  5
274
330
271
100
AcDbEntity
  8
0
  6
ByBlock
 62
     0
100
AcDbVertex
100
AcDb2dVertex
 10
0.25
 20
0.0
 30
0.0
 42
1.0
  0
SEQEND
  5
275
330
271
100
AcDbEntity
  8
0
  6
ByBlock
 62
     0
  0
LINE
  5
272
330
26E
100
AcDbEntity
  8
0
  6
ByBlock
 62
     0
370
    -2
100
AcDbLine
 10
-0.5
 20
0.0
 30
0.0
 11
-1.0
 21
0.0
 31
0.0
  0
ENDBLK
  5
270
330
26E
100
AcDbEntity
  8
0
100
AcDbBlockEnd
  0
BLOCK
  5
27A
330
279
100
AcDbEntity
  8
0
100
AcDbBlockBegin
  2
SW_NOTE_4
 70
     0
 10
0.0
 20
0.0
 30
0.0
  3
SW_NOTE_4
  1

  0
MTEXT
  5
27C
330
279
100
AcDbEntity
  8
5
 62
     0
100
AcDbMText
 10
0.5010553248993855
 20
1.52656245310076
 30
0.0
 40
3.174999999999999
 41
0.0
 71
     1
 72
     1
  1
PCB THERMAL PAD
  7
SLDTEXTSTYLE0
 73
     1
 44
1.0
1001
ACAD
1000
MTEXTBEGIN
1070
    73
1070
     1
1070
    44
1040
1.0
1070
    74
1070
     0
1000
MTEXTEND
  0
MTEXT
  5
27D
330
279
100
AcDbEntity
  8
5
 62
     0
100
AcDbMText
 10
1.089019755350778
 20
-2.706770829071919
 30
0.0
 40
3.174999999999999
 41
0.0
 71
     1
 72
     1
  1
DESIGN OPTIONAL
  7
SLDTEXTSTYLE0
 73
     1
 44
1.0
1001
ACAD
1000
MTEXTBEGIN
1070
    73
1070
     1
1070
    44
1040
1.0
1070
    74
1070
     0
1000
MTEXTEND
  0
MTEXT
  5
27E
330
279
100
AcDbEntity
  8
5
 62
     0
100
AcDbMText
 10
5.439943688439558
 20
-6.940104111244599
 30
0.0
 40
3.174999999999999
 41
0.0
 71
     1
 72
     1
  1
SEE NOTE 7&8
  7
SLDTEXTSTYLE0
 73
     1
 44
1.0
1001
ACAD
1000
MTEXTBEGIN
1070
    73
1070
     1
1070
    44
1040
1.0
1070
    74
1070
     0
1000
MTEXTEND
  0
ENDBLK
  5
27B
330
279
100
AcDbEntity
  8
0
100
AcDbBlockEnd
  0
BLOCK
  5
286
330
285
100
AcDbEntity
  8
0
100
AcDbBlockBegin
  2
_NONE
 70
     0
 10
0.0
 20
0.0
 30
0.0
  3
_NONE
  1

  0
ENDBLK
  5
287
330
285
100
AcDbEntity
  8
0
100
AcDbBlockEnd
  0
BLOCK
  5
2FF
330
2FE
100
AcDbEntity
  8
0
100
AcDbBlockBegin
  2
SW_NOTE_5
 70
     0
 10
0.0
 20
0.0
 30
0.0
  3
SW_NOTE_5
  1

  0
MTEXT
  5
301
330
2FE
100
AcDbEntity
  8
5
 62
     0
100
AcDbMText
 10
0.0
 20
4.092790073775984
 30
0.0
 40
3.174999999999999
 41
0.0
 71
     1
 72
     1
  1
DETAIL B 
  7
SLDTEXTSTYLE0
 73
     1
 44
1.0
1001
ACAD
1000
MTEXTBEGIN
1070
    73
1070
     1
1070
    44
1040
1.0
1070
    74
1070
     0
1000
MTEXTEND
  0
MTEXT
  5
302
330
2FE
100
AcDbEntity
  8
5
 62
     0
100
AcDbMText
 10
-2.822221256792545
 20
-0.1405432083966957
 30
0.0
 40
3.174999999999999
 41
0.0
 71
     1
 72
     1
  1
SCALE 40 : 1
  7
SLDTEXTSTYLE0
 73
     1
 44
1.0
1001
ACAD
1000
MTEXTBEGIN
1070
    73
1070
     1
1070
    44
1040
1.0
1070
    74
1070
     0
1000
MTEXTEND
  0
ENDBLK
  5
300
330
2FE
100
AcDbEntity
  8
0
100
AcDbBlockEnd
  0
ENDSEC
  0
SECTION
  2
ENTITIES
  0
IMAGE
  5
4B
330
1F
100
AcDbEntity
  8
Titleblock
 92
      140
310
8C000000010000008400000006000000050000002A4AAA337B411A40675934917EB4EA3F00000000000000002A4AAA337B411A4021E47E96961DF23F00000000000000009996C93E8A3D1C4021E47E96961DF23F00000000000000009996C93E8A3D1C40675934917EB4EA3F00000000000000002A4AAA337B411A40675934
310
917EB4EA3F0000000000000000
100
AcDbRasterImage
 90
        0
 10
6.563946540135058
 20
0.8345330081963709
 30
0.0
 11
0.0003160198319704
 21
0.0
 31
0.0
 12
0.0
 22
0.0003160198319704
 32
0.0
 13
1570.0
 23
942.0
340
4A
 70
     7
280
     0
281
    50
282
    50
283
     0
360
4C
 71
     1
 91
        2
 14
-0.5
 24
-0.5
 14
1569.5
 24
941.5
  0
LINE
  5
4D
330
1F
100
AcDbEntity
  8
Titleblock
100
AcDbLine
 10
5.887047820713534
 20
1.134209633943107
 30
0.0
 11
7.786645587058719
 21
1.134209633943107
 31
0.0
  0
LINE
  5
4E
330
1F
100
AcDbEntity
  8
Titleblock
100
AcDbLine
 10
7.786645587058719
 20
1.134209633943107
 30
0.0
 11
7.786645587058719
 21
0.1843708364851471
 31
0.0
  0
LINE
  5
4F
330
1F
100
AcDbEntity
  8
Titleblock
100
AcDbLine
 10
7.09588315877735
 20
0.3138687439309354
 30
0.0
 11
7.09588315877735
 21
0.1843708364851471
 31
0.0
  0
LINE
  5
50
330
1F
100
AcDbEntity
  8
Titleblock
100
AcDbLine
 10
6.620443785767173
 20
0.5729451131075259
 30
0.0
 11
6.620443785767173
 21
0.3138687439309354
 31
0.0
  0
LINE
  5
51
330
1F
100
AcDbEntity
  8
Titleblock
100
AcDbLine
 10
7.429186310165878
 20
0.5743043759528539
 30
0.0
 11
7.429186310165878
 21
0.3164283381944009
 31
0.0
  0
LINE
  5
52
330
1F
100
AcDbEntity
  8
Titleblock
100
AcDbLine
 10
6.379004450722992
 20
0.5729451131075259
 30
0.0
 11
6.379004450722992
 21
0.3138687439309354
 31
0.0
  0
LINE
  5
53
330
1F
100
AcDbEntity
  8
Titleblock
100
AcDbLine
 10
5.887047820713534
 20
1.134209633943107
 30
0.0
 11
5.887047820713534
 21
0.1843708364851471
 31
0.0
  0
LINE
  5
54
330
1F
100
AcDbEntity
  8
Titleblock
100
AcDbLine
 10
7.786645587058719
 20
0.3138687439309354
 30
0.0
 11
5.887047820713534
 21
0.3138687439309354
 31
0.0
  0
LINE
  5
55
330
1F
100
AcDbEntity
  8
Titleblock
100
AcDbLine
 10
5.887047820713534
 20
0.5729451131075259
 30
0.0
 11
7.786645587058719
 21
0.5729451131075259
 31
0.0
  0
LINE
  5
56
330
1F
100
AcDbEntity
  8
Titleblock
100
AcDbLine
 10
7.786645587058719
 20
0.8319409279991024
 30
0.0
 11
5.887047820713534
 21
0.8319409279991024
 31
0.0
  0
LINE
  5
57
330
1F
100
AcDbEntity
  8
Titleblock
100
AcDbLine
 10
4.850904178291479
 20
0.1843708364851471
 30
0.0
 11
7.786645587058719
 21
0.1843708364851471
 31
0.0
  0
LINE
  5
58
330
1F
100
AcDbEntity
  8
Titleblock
100
AcDbLine
 10
7.786645587058719
 20
0.1843708364851471
 30
0.0
 11
0.166645653294381
 21
0.1843708364851471
 31
0.0
  0
LINE
  5
59
330
1F
100
AcDbEntity
  8
Titleblock
100
AcDbLine
 10
7.786645587058719
 20
5.990085071734166
 30
0.0
 11
7.786645587058719
 21
0.1843708364851471
 31
0.0
  0
LINE
  5
5A
330
1F
100
AcDbEntity
  8
Titleblock
100
AcDbLine
 10
0.166645653294381
 20
5.990085071734166
 30
0.0
 11
7.786645587058719
 21
5.990085071734166
 31
0.0
  0
LINE
  5
5B
330
1F
100
AcDbEntity
  8
Titleblock
100
AcDbLine
 10
0.166645653294381
 20
0.1843708364851471
 30
0.0
 11
0.166645653294381
 21
5.990085071734166
 31
0.0
  0
LINE
  5
5C
330
1F
100
AcDbEntity
  8
Titleblock
100
AcDbLine
 10
0.166645653294381
 20
0.6693279522697332
 30
0.0
 11
0.166645653294381
 21
0.1843708364851471
 31
0.0
  0
LINE
  5
5D
330
1F
100
AcDbEntity
  8
Titleblock
100
AcDbLine
 10
0.166645653294381
 20
0.1843708364851471
 30
0.0
 11
4.188256646908582
 21
0.1843708364851471
 31
0.0
  0
MTEXT
  5
9A
330
1F
100
AcDbEntity
  8
Titleblock
100
AcDbMText
 10
6.09163901322087
 20
0.2673767494291845
 30
0.0
 40
0.0460102853143485
 41
0.0
 71
     1
 72
     1
  1
DO NOT SCALE DRAWING
  7
SLDTEXTSTYLE1
 73
     1
 44
1.0
1001
ACAD
1000
MTEXTBEGIN
1070
    73
1070
     1
1070
    44
1040
1.0
1070
    74
1070
     0
1000
MTEXTEND
  0
MTEXT
  5
9B
330
1F
100
AcDbEntity
  8
Titleblock
100
AcDbMText
 10
6.475211667029581
 20
0.4545691577404295
 30
0.0
 40
0.0601675194770032
 41
0.0
 71
     1
 72
     1
  1
A
  7
SLDTEXTSTYLE1
 73
     1
 44
1.0
1001
ACAD
1000
MTEXTBEGIN
1070
    73
1070
     1
1070
    44
1040
1.0
1070
    74
1070
     0
1000
MTEXTEND
  0
MTEXT
  5
9C
330
1F
100
AcDbEntity
  8
Titleblock
100
AcDbMText
 10
6.427265176017781
 20
0.5496171926901391
 30
0.0
 40
0.0460102853143485
 41
0.0
 71
     1
 72
     1
  1
SIZE
  7
SLDTEXTSTYLE1
 73
     1
 44
1.0
1001
ACAD
1000
MTEXTBEGIN
1070
    73
1070
     1
1070
    44
1040
1.0
1070
    74
1070
     0
1000
MTEXTEND
  0
MTEXT
  5
9D
330
1F
100
AcDbEntity
  8
Titleblock
100
AcDbMText
 10
7.442133778624764
 20
0.5522798383812802
 30
0.0
 40
0.0460102853143485
 41
0.0
 71
     1
 72
     1
  1
REV
  7
SLDTEXTSTYLE1
 73
     1
 44
1.0
1001
ACAD
1000
MTEXTBEGIN
1070
    73
1070
     1
1070
    44
1040
1.0
1070
    74
1070
     0
1000
MTEXTEND
  0
MTEXT
  5
9E
330
1F
100
AcDbEntity
  8
Titleblock
100
AcDbMText
 10
6.786863858606308
 20
0.5549424840724209
 30
0.0
 40
0.0460102853143485
 41
0.0
 71
     1
 72
     1
  1
DRAWING NO.
  7
SLDTEXTSTYLE1
 73
     1
 44
1.0
1001
ACAD
1000
MTEXTBEGIN
1070
    73
1070
     1
1070
    44
1040
1.0
1070
    74
1070
     0
1000
MTEXTEND
  0
MTEXT
  5
9F
330
1F
100
AcDbEntity
  8
Titleblock
100
AcDbMText
 10
5.907843889104197
 20
0.8052319047539622
 30
0.0
 40
0.0460102853143485
 41
0.0
 71
     1
 72
     1
  1
TITLE
  7
SLDTEXTSTYLE1
 73
     1
 44
1.0
1001
ACAD
1000
MTEXTBEGIN
1070
    73
1070
     1
1070
    44
1040
1.0
1070
    74
1070
     0
1000
MTEXTEND
  0
MTEXT
  5
A0
330
1F
100
AcDbEntity
  8
Titleblock
100
AcDbMText
 10
6.204679452508672
 20
0.6918156548601769
 30
0.0
 40
0.0755952374381383
 41
0.0
 71
     1
 72
     1
  1
M-QFN CAVITY PACKAGE
  7
SLDTEXTSTYLE0
 73
     1
 44
1.0
1001
ACAD
1000
MTEXTBEGIN
1070
    73
1070
     1
1070
    44
1040
1.0
1070
    74
1070
     0
1000
MTEXTEND
  0
MTEXT
  5
A2
330
1F
100
AcDbEntity
  8
Titleblock
100
AcDbMText
 10
7.50904130557274
 20
0.2704592613671368
 30
0.0
 40
0.0377976187190692
 41
0.0
 71
     1
 72
     1
  1
OF  4
  7
SLDTEXTSTYLE2
 73
     1
 44
1.0
1001
ACAD
1000
MTEXTBEGIN
1070
    73
1070
     1
1070
    44
1040
1.0
1070
    74
1070
     0
1000
MTEXTEND
  0
MTEXT
  5
A3
330
1F
100
AcDbEntity
  8
Titleblock
100
AcDbMText
 10
7.216981013958157
 20
0.2691732478009303
 30
0.0
 40
0.0377976187190692
 41
0.0
 71
     1
 72
     1
  1
SHEET  4
  7
SLDTEXTSTYLE0
 73
     1
 44
1.0
1001
ACAD
1000
MTEXTBEGIN
1070
    73
1070
     1
1070
    44
1040
1.0
1070
    74
1070
     0
1000
MTEXTEND
  0
MTEXT
  5
AA
330
1F
100
AcDbEntity
  8
Titleblock
100
AcDbMText
 10
6.251107359770528
 20
0.8115306170615859
 30
0.0
 40
0.0755952374381383
 41
0.0
 71
     1
 72
     1
  1
16-LEAD 3mm P=0.5 mm
  7
SLDTEXTSTYLE0
 73
     1
 44
1.0
1001
ACAD
1000
MTEXTBEGIN
1070
    73
1070
     1
1070
    44
1040
1.0
1070
    74
1070
     0
1000
MTEXTEND
  0
MTEXT
  5
AB
330
1F
100
AcDbEntity
  8
Titleblock
100
AcDbMText
 10
7.584138383201193
 20
0.4545282194862806
 30
0.0
 40
0.0604761899505106
 41
0.0
 71
     1
 72
     1
  1
A
  7
SLDTEXTSTYLE0
 73
     1
 44
1.0
1001
ACAD
1000
MTEXTBEGIN
1070
    73
1070
     1
1070
    44
1040
1.0
1070
    74
1070
     0
1000
MTEXTEND
  0
MTEXT
  5
AC
330
1F
100
AcDbEntity
  8
Titleblock
100
AcDbMText
 10
6.895428791967229
 20
0.4490463049328327
 30
0.0
 40
0.0604761899505106
 41
0.0
 71
     1
 72
     1
  1
451650
  7
SLDTEXTSTYLE0
 73
     1
 44
1.0
1001
ACAD
1000
MTEXTBEGIN
1070
    73
1070
     1
1070
    44
1040
1.0
1070
    74
1070
     0
1000
MTEXTEND
  0
LINE
  5
AD
330
1F
100
AcDbEntity
  8
PCB_Soldermask
100
AcDbLine
 10
2.391281761336601
 20
2.965695980303523
 30
0.0
 11
3.591281807902729
 21
2.965695980303523
 31
0.0
  0
LINE
  5
AE
330
1F
100
AcDbEntity
  8
PCB_Soldermask
100
AcDbLine
 10
2.391281761336601
 20
4.165696026869651
 30
0.0
 11
2.391281761336601
 21
2.965695980303523
 31
0.0
  0
LINE
  5
AF
330
1F
100
AcDbEntity
  8
PCB_Soldermask
100
AcDbLine
 10
3.591281807902729
 20
4.165696026869651
 30
0.0
 11
2.391281761336601
 21
4.165696026869651
 31
0.0
  0
LINE
  5
B0
330
1F
100
AcDbEntity
  8
PCB_Soldermask
100
AcDbLine
 10
3.591281807902729
 20
2.965695980303523
 30
0.0
 11
3.591281807902729
 21
4.165696026869651
 31
0.0
  0
LINE
  5
F5
330
1F
100
AcDbEntity
  8
QFN_Bottom
100
AcDbLine
 10
3.403146791431513
 20
2.85757100193737
 30
0.0
 11
3.699406786268882
 21
2.85757100193737
 31
0.0
  0
LINE
  5
F6
330
1F
100
AcDbEntity
  8
QFN_Bottom
100
AcDbLine
 10
3.699406786268882
 20
3.333561001706092
 30
0.0
 11
3.699406786268882
 21
3.797560994682367
 31
0.0
  0
LINE
  5
F7
330
1F
100
AcDbEntity
  8
QFN_Bottom
100
AcDbLine
 10
2.283156782970447
 20
2.85757100193737
 30
0.0
 11
2.579146781575016
 21
2.85757100193737
 31
0.0
  0
LINE
  5
F8
330
1F
100
AcDbEntity
  8
QFN_Bottom
100
AcDbLine
 10
2.283156782970447
 20
3.864821008573043
 30
0.0
 11
2.283156782970447
 21
3.333561001706092
 31
0.0
  0
LINE
  5
F9
330
1F
100
AcDbEntity
  8
QFN_Bottom
100
AcDbLine
 10
2.692156779633208
 20
4.273821005235804
 30
0.0
 11
2.684031776043736
 21
4.265695972542501
 31
0.0
  0
LINE
  5
FA
330
1F
100
AcDbEntity
  8
QFN_Bottom
100
AcDbLine
 10
2.29128181566375
 20
3.872946012162516
 30
0.0
 11
2.283156782970447
 21
3.864821008573043
 31
0.0
  0
LINE
  5
FB
330
1F
100
AcDbEntity
  8
QFN_Bottom
100
AcDbLine
 10
3.699406786268882
 20
4.273821005235804
 30
0.0
 11
3.403146791431513
 21
4.273821005235804
 31
0.0
  0
LINE
  5
FC
330
1F
100
AcDbEntity
  8
QFN_Bottom
100
AcDbLine
 10
3.699406786268882
 20
3.977561010398435
 30
0.0
 11
3.699406786268882
 21
4.273821005235804
 31
0.0
  0
LINE
  5
FD
330
1F
100
AcDbEntity
  8
QFN_Bottom
100
AcDbLine
 10
2.283156782970447
 20
3.153561000541938
 30
0.0
 11
2.283156782970447
 21
2.85757100193737
 31
0.0
  0
LINE
  5
FE
330
1F
100
AcDbEntity
  8
QFN_Bottom
100
AcDbLine
 10
3.699406786268882
 20
2.85757100193737
 30
0.0
 11
3.699406786268882
 21
3.153561000541938
 31
0.0
  0
LINE
  5
FF
330
1F
100
AcDbEntity
  8
QFN_Bottom
100
AcDbLine
 10
2.759146782739169
 20
2.85757100193737
 30
0.0
 11
3.223146775715445
 21
2.85757100193737
 31
0.0
  0
LINE
  5
100
330
1F
100
AcDbEntity
  8
QFN_Bottom
100
AcDbLine
 10
3.223146775715445
 20
4.273821005235804
 30
0.0
 11
2.692156779633208
 21
4.273821005235804
 31
0.0
  0
LINE
  5
10D
330
1F
100
AcDbEntity
  8
QFN_Outline
100
AcDbLine
 10
1.491281784619665
 20
2.065696003586587
 30
0.0
 11
1.491281784619665
 21
5.065696003586587
 31
0.0
  0
LINE
  5
10E
330
1F
100
AcDbEntity
  8
QFN_Outline
100
AcDbLine
 10
4.491281784619665
 20
2.065696003586587
 30
0.0
 11
1.491281784619665
 21
2.065696003586587
 31
0.0
  0
LINE
  5
117
330
1F
100
AcDbEntity
  8
QFN_Outline
100
AcDbLine
 10
4.491281784619665
 20
5.065696003586587
 30
0.0
 11
4.491281784619665
 21
2.065696003586587
 31
0.0
  0
LINE
  5
118
330
1F
100
AcDbEntity
  8
QFN_Outline
100
AcDbLine
 10
1.491281784619665
 20
5.065696003586587
 30
0.0
 11
4.491281784619665
 21
5.065696003586587
 31
0.0
  0
LINE
  5
15D
330
1F
100
AcDbEntity
  8
QFN_Bottom
100
AcDbLine
 10
2.684031776043736
 20
4.265695972542501
 30
0.0
 11
2.29128181566375
 21
3.872946012162516
 31
0.0
  0
LINE
  5
1CA
330
1F
100
AcDbEntity
  8
QFN_Bottom
100
AcDbLine
 10
3.699406786268882
 20
3.977561010398435
 30
0.0
 11
3.699406786268882
 21
3.797560994682367
 31
0.0
  0
LINE
  5
1CB
330
1F
100
AcDbEntity
  8
QFN_Bottom
100
AcDbLine
 10
2.283156782970447
 20
3.153561000541938
 30
0.0
 11
2.283156782970447
 21
3.333561001706092
 31
0.0
  0
LINE
  5
1CC
330
1F
100
AcDbEntity
  8
QFN_Bottom
100
AcDbLine
 10
3.223146775715445
 20
4.273821005235804
 30
0.0
 11
3.403146791431513
 21
4.273821005235804
 31
0.0
  0
LINE
  5
1CD
330
1F
100
AcDbEntity
  8
QFN_Bottom
100
AcDbLine
 10
2.759146782739169
 20
2.85757100193737
 30
0.0
 11
2.579146781575016
 21
2.85757100193737
 31
0.0
  0
LINE
  5
1CE
330
1F
100
AcDbEntity
  8
QFN_Bottom
100
AcDbLine
 10
3.699406786268882
 20
3.333561001706092
 30
0.0
 11
3.699406786268882
 21
3.153561000541938
 31
0.0
  0
LINE
  5
1CF
330
1F
100
AcDbEntity
  8
QFN_Bottom
100
AcDbLine
 10
3.403146791431513
 20
2.85757100193737
 30
0.0
 11
3.223146775715445
 21
2.85757100193737
 31
0.0
  0
LINE
  5
1E0
330
1F
100
AcDbEntity
  8
Dimensions
100
AcDbLine
 10
2.991281784619671
 20
5.457296667452539
 30
0.0
 11
2.991281784619658
 21
1.696764423040493
 31
0.0
  0
LINE
  5
1E1
330
1F
100
AcDbEntity
  8
Dimensions
100
AcDbLine
 10
1.103752855037839
 20
3.565696003586594
 30
0.0
 11
4.889489739157742
 21
3.565696003586581
 31
0.0
  0
LINE
  5
1E2
330
1F
100
AcDbEntity
  8
Dimensions
100
AcDbLine
 10
2.039856667366185
 20
4.315695997067346
 30
0.0
 11
1.125716801541327
 21
4.315695997067349
 31
0.0
  0
LINE
  5
1E3
330
1F
100
AcDbEntity
  8
Dimensions
100
AcDbLine
 10
2.039856667366183
 20
3.815696001413518
 30
0.0
 11
1.125716801541325
 21
3.815696001413521
 31
0.0
  0
LINE
  5
1E4
330
1F
100
AcDbEntity
  8
Dimensions
100
AcDbLine
 10
2.03985666736618
 20
2.815696010105862
 30
0.0
 11
1.125716801541321
 21
2.815696010105865
 31
0.0
  0
LINE
  5
1E5
330
1F
100
AcDbEntity
  8
Dimensions
100
AcDbLine
 10
3.741281778100411
 20
4.544719993056573
 30
0.0
 11
3.741281778100414
 21
5.3911163510883
 31
0.0
  0
LINE
  5
1E6
330
1F
100
AcDbEntity
  8
Dimensions
100
AcDbLine
 10
2.241281791138926
 20
4.544719993056578
 30
0.0
 11
2.241281791138929
 21
5.391116351088305
 31
0.0
  0
CIRCLE
  5
283
330
1F
100
AcDbEntity
  8
Detail
100
AcDbCircle
 10
3.49312923798612
 20
2.125200470455436
 30
0.0
 40
0.550750238979353
  0
LEADER
  5
288
330
1F
100
AcDbEntity
  8
Detail
100
AcDbLeader
  3
SLDDIMSTYLE6
 71
     0
 76
     3
 10
3.998552829726056
 20
1.906401890367454
 30
0.0
 10
4.125119410988583
 20
1.773070358481988
 30
0.0
 10
4.306547980840115
 20
1.773070358481988
 30
0.0
  0
MTEXT
  5
289
330
1F
100
AcDbEntity
  8
Detail
100
AcDbMText
 10
4.320833695001653
 20
1.83349856042228
 30
-0.0000000000000132
 40
0.1209523799010212
 41
0.0
 71
     1
 72
     1
  1
B
  7
SLDTEXTSTYLE0
 73
     1
 44
1.0
1001
ACAD
1000
MTEXTBEGIN
1070
    73
1070
     1
1070
    44
1040
1.0
1070
    74
1070
     0
1000
MTEXTEND
  0
ARC
  5
28A
330
1F
100
AcDbEntity
  8
Detail
100
AcDbCircle
 10
6.585092502613875
 20
1.853340226497589
 30
0.0
 40
0.6294288094693281
100
AcDbArc
 50
359.9999885052733
 51
186.2024985763022
  0
ARC
  5
28B
330
1F
100
AcDbEntity
  8
Detail
100
AcDbCircle
 10
6.586011089906985
 20
1.853289554464415
 30
0.0
 40
0.628510224208688
100
AcDbArc
 50
353.7930472274726
 51
0.004607814509842
  0
ARC
  5
28C
330
1F
100
AcDbEntity
  8
Detail
100
AcDbCircle
 10
6.297266881831633
 20
2.099620794572439
 30
0.0
 40
0.2114285663284717
100
AcDbArc
 50
0.0000003651519447
 51
179.999999634848
  0
LINE
  5
28D
330
1F
100
AcDbEntity
  8
Detail
100
AcDbLine
 10
6.508695461464713
 20
1.488192257309357
 30
0.0
 11
6.508695461464713
 21
2.099620742701463
 31
0.0
  0
LINE
  5
28E
330
1F
100
AcDbEntity
  8
Detail
100
AcDbLine
 10
6.085838315503162
 20
1.488192257309357
 30
0.0
 11
6.508695461464713
 21
1.488192257309357
 31
0.0
  0
LINE
  5
28F
330
1F
100
AcDbEntity
  8
Detail
100
AcDbLine
 10
6.085838315503162
 20
2.099620742701463
 30
0.0
 11
6.085838315503162
 21
1.488192257309357
 31
0.0
  0
ARC
  5
290
330
1F
100
AcDbEntity
  8
Detail
100
AcDbCircle
 10
6.868695458803792
 20
2.099620778633146
 30
0.0
 40
0.2114285829592325
100
AcDbArc
 50
0.0000046845973641
 51
179.9999953154026
  0
LINE
  5
291
330
1F
100
AcDbEntity
  8
Detail
100
AcDbLine
 10
7.080124015153807
 20
1.488192257309357
 30
0.0
 11
7.080124015153807
 21
2.099620742701463
 31
0.0
  0
LINE
  5
292
330
1F
100
AcDbEntity
  8
Detail
100
AcDbLine
 10
6.657266849235344
 20
1.488192257309357
 30
0.0
 11
7.080124015153807
 21
1.488192257309357
 31
0.0
  0
LINE
  5
293
330
1F
100
AcDbEntity
  8
Detail
100
AcDbLine
 10
6.657266849235344
 20
2.099620742701463
 30
0.0
 11
6.657266849235344
 21
1.488192257309357
 31
0.0
  0
LINE
  5
294
330
1F
100
AcDbEntity
  8
Detail
100
AcDbLine
 10
7.210836893573172
 20
1.785335032850618
 30
0.0
 11
7.080124015153807
 21
1.785335032850618
 31
0.0
  0
LINE
  5
295
330
1F
100
AcDbEntity
  8
Detail
100
AcDbLine
 10
6.657266849235344
 20
1.785335032850618
 30
0.0
 11
6.508695461464713
 21
1.785335032850618
 31
0.0
  0
LINE
  5
296
330
1F
100
AcDbEntity
  8
Detail
100
AcDbLine
 10
6.085838315503162
 20
1.785335032850618
 30
0.0
 11
5.959348209929545
 21
1.785335032850618
 31
0.0
  0
LINE
  5
297
330
1F
100
AcDbEntity
  8
Detail
100
AcDbLine
 10
6.440124043536971
 20
2.099620742701463
 30
0.0
 11
6.440124043536971
 21
1.556763568800234
 31
0.0
  0
LINE
  5
298
330
1F
100
AcDbEntity
  8
Detail
100
AcDbLine
 10
6.154409753387816
 20
1.556763568800234
 30
0.0
 11
6.154409753387816
 21
2.099620742701463
 31
0.0
  0
LINE
  5
299
330
1F
100
AcDbEntity
  8
Detail
100
AcDbLine
 10
6.440124043536971
 20
1.556763568800234
 30
0.0
 11
6.154409753387816
 21
1.556763568800234
 31
0.0
  0
ARC
  5
29A
330
1F
100
AcDbEntity
  8
Detail
100
AcDbCircle
 10
6.297266890147014
 20
2.099620839866976
 30
0.0
 40
0.1428571400853563
100
AcDbArc
 50
359.9999823741248
 51
180.0000176258768
  0
ARC
  5
29B
330
1F
100
AcDbEntity
  8
Detail
100
AcDbCircle
 10
6.868695458803792
 20
2.099620813623657
 30
0.0
 40
0.1428571650314908
100
AcDbArc
 50
359.999992899546
 51
180.0000071004556
  0
LINE
  5
29C
330
1F
100
AcDbEntity
  8
Detail
100
AcDbLine
 10
6.725838267163085
 20
1.556763568800234
 30
0.0
 11
6.725838267163085
 21
2.099620742701463
 31
0.0
  0
LINE
  5
29D
330
1F
100
AcDbEntity
  8
Detail
100
AcDbLine
 10
7.011552597226065
 20
2.099620742701463
 30
0.0
 11
7.011552597226065
 21
1.556763568800234
 31
0.0
  0
LINE
  5
29E
330
1F
100
AcDbEntity
  8
Detail
100
AcDbLine
 10
7.011552597226065
 20
1.556763568800234
 30
0.0
 11
6.725838267163085
 21
1.556763568800234
 31
0.0
  0
LINE
  5
29F
330
1F
100
AcDbEntity
  8
Detail
100
AcDbLine
 10
7.011552597226065
 20
2.099620742701463
 30
0.0
 11
7.011552597226065
 21
2.128077915733457
 31
0.0
  0
LINE
  5
2A0
330
1F
100
AcDbEntity
  8
Detail
100
AcDbLine
 10
6.725838267163085
 20
2.128077915733457
 30
0.0
 11
6.725838267163085
 21
2.099620742701463
 31
0.0
  0
LINE
  5
2A1
330
1F
100
AcDbEntity
  8
Detail
100
AcDbLine
 10
6.440124043536971
 20
2.099620742701463
 30
0.0
 11
6.440124043536971
 21
2.128077915733457
 31
0.0
  0
LINE
  5
2A2
330
1F
100
AcDbEntity
  8
Detail
100
AcDbLine
 10
6.154409753387816
 20
2.128077915733457
 30
0.0
 11
6.154409753387816
 21
2.099620742701463
 31
0.0
  0
LINE
  5
2A3
330
1F
100
AcDbEntity
  8
Detail
100
AcDbLine
 10
7.007044889567243
 20
2.159858579867118
 30
0.0
 11
6.928737265873802
 21
2.237945347066212
 31
0.0
  0
LINE
  5
2A4
330
1F
100
AcDbEntity
  8
Detail
100
AcDbLine
 10
7.007044889567243
 20
2.159858579867118
 30
0.0
 11
7.011552597226065
 21
2.155363644632066
 31
0.0
  0
LINE
  5
2A5
330
1F
100
AcDbEntity
  8
Detail
100
AcDbLine
 10
7.080124015153807
 20
1.785335032850618
 30
0.0
 11
6.657266849235344
 21
1.785335032850618
 31
0.0
  0
LINE
  5
2A6
330
1F
100
AcDbEntity
  8
Detail
100
AcDbLine
 10
6.508695461464713
 20
1.785335032850618
 30
0.0
 11
6.085838315503162
 21
1.785335032850618
 31
0.0
  0
LINE
  5
2A7
330
1F
100
AcDbEntity
  8
Detail
100
AcDbLine
 10
6.297266884891691
 20
1.44714432462278
 30
0.0
 11
6.297266884891691
 21
2.363418982663211
 31
0.0
  0
LINE
  5
2A8
330
1F
100
AcDbEntity
  8
Detail
100
AcDbLine
 10
6.868695451353208
 20
1.44714432462278
 30
0.0
 11
6.868695451353208
 21
2.357389193624248
 31
0.0
  0
INSERT
  5
600
330
1F
100
AcDbEntity
  8
Dimensions
100
AcDbBlockReference
  2
_DOT
 10
3.498184585520902
 20
3.037236481385379
 30
0.0
 41
0.0362857139703064
 42
0.0362857139703064
 43
0.0362857139703064
 50
184.5342457089889
  0
LWPOLYLINE
  5
601
330
1F
100
AcDbEntity
  8
Dimensions
100
AcDbPolyline
 90
        3
 70
     0
 43
0.0
 10
3.534356734663723
 20
3.040105046309595
 10
5.124101070760492
 20
3.166176760295764
 10
5.305529640612023
 20
3.166176760295764
  0
TEXT
  5
604
330
1F
100
AcDbEntity
  8
Dimensions
100
AcDbText
 10
5.31984821685559
 20
3.119071911822917
 30
0.0
 40
0.090714284925766
  1
COMPONENT PAD
 41
0.605
  7
SLDTEXTSTYLE0
100
AcDbText
  0
SOLID
  5
605
330
1F
100
AcDbEntity
  8
Dimensions
100
AcDbTrace
 10
3.783180998517687
 20
3.714683613007017
 30
0.0
 11
3.691281778535024
 21
3.718176527707417
 31
0.0
 12
3.779346310313349
 22
3.744677571633848
 32
0.0
 13
3.779346310313349
 23
3.744677571633848
 33
0.0
  0
LWPOLYLINE
  5
606
330
1F
100
AcDbEntity
  8
Dimensions
100
AcDbPolyline
 90
        3
 70
     0
 43
0.0
 10
3.781263654415518
 20
3.729680592320433
 10
4.89963521281315
 20
3.872662926743575
 10
5.081063782664681
 20
3.872662926743575
  0
MTEXT
  5
607
330
1F
100
AcDbEntity
  8
Dimensions
100
AcDbMText
 10
5.09537964896594
 20
3.916278996453042
 30
0.0
 40
0.090714284925766
 41
0.0
 71
     1
 72
     1
  1
PCB THERMAL PAD
  7
SLDTEXTSTYLE0
 73
     1
 44
1.0
1001
ACAD
1000
MTEXTBEGIN
1070
    73
1070
     1
1070
    44
1040
1.0
1070
    74
1070
     0
1000
MTEXTEND
  0
MTEXT
  5
608
330
1F
100
AcDbEntity
  8
Dimensions
100
AcDbMText
 10
5.112178632547101
 20
3.795326618013753
 30
0.0
 40
0.090714284925766
 41
0.0
 71
     1
 72
     1
  1
DESIGN OPTIONAL
  7
SLDTEXTSTYLE0
 73
     1
 44
1.0
1001
ACAD
1000
MTEXTBEGIN
1070
    73
1070
     1
1070
    44
1040
1.0
1070
    74
1070
     0
1000
MTEXTEND
  0
MTEXT
  5
609
330
1F
100
AcDbEntity
  8
Dimensions
100
AcDbMText
 10
5.236490743840502
 20
3.674374239574465
 30
0.0
 40
0.090714284925766
 41
0.0
 71
     1
 72
     1
  1
SEE NOTE 7&8
  7
SLDTEXTSTYLE0
 73
     1
 44
1.0
1001
ACAD
1000
MTEXTBEGIN
1070
    73
1070
     1
1070
    44
1040
1.0
1070
    74
1070
     0
1000
MTEXTEND
  0
SOLID
  5
60A
330
1F
100
AcDbEntity
  8
Dimensions
100
AcDbTrace
 10
3.681454627041337
 20
3.412789134844136
 30
0.0
 11
3.591281779404258
 21
3.430859127526656
 31
0.0
 12
3.682440957228258
 22
3.443011139087649
 32
0.0
 13
3.682440957228258
 23
3.443011139087649
 33
0.0
  0
LWPOLYLINE
  5
60B
330
1F
100
AcDbEntity
  8
Dimensions
100
AcDbPolyline
 90
        3
 70
     0
 43
0.0
 10
3.681947792134797
 20
3.427900136965893
 10
5.068208208543412
 20
3.382657919255224
 10
5.249636778394943
 20
3.382657919255224
  0
TEXT
  5
60C
330
1F
100
AcDbEntity
  8
Dimensions
100
AcDbText
 10
5.26396442714594
 20
3.33557282029122
 30
0.0
 40
0.090714284925766
  1
SOLDER MASK OPENING
 41
0.605
  7
SLDTEXTSTYLE0
100
AcDbText
  0
INSERT
  5
60D
330
1F
100
AcDbEntity
  8
Dimensions
100
AcDbBlockReference
  2
_DOT
 10
4.598341137030534
 20
4.317998550567571
 30
0.0
 41
0.0362857139703064
 42
0.0362857139703064
 43
0.0362857139703064
 50
191.5920789125037
  0
LWPOLYLINE
  5
60E
330
1F
100
AcDbEntity
  8
Dimensions
100
AcDbPolyline
 90
        3
 70
     0
 43
0.0
 10
4.63388673271071
 20
4.325289892424622
 10
4.93662033852502
 20
4.387388562298409
 10
5.118048908376551
 20
4.387388562298409
  0
TEXT
  5
60F
330
1F
100
AcDbEntity
  8
Dimensions
100
AcDbText
 10
5.132337295763941
 20
4.340259929606092
 30
0.0
 40
0.090714284925766
  1
COMPONENT PAD
 41
0.605
  7
SLDTEXTSTYLE0
100
AcDbText
  0
SOLID
  5
610
330
1F
100
AcDbEntity
  8
Dimensions
100
AcDbTrace
 10
4.77582293218678
 20
4.406723825732476
 30
0.0
 11
4.691281769842686
 21
4.370523563909725
 31
0.0
 12
4.759512514171612
 22
4.43218581017798
 32
0.0
 13
4.759512514171612
 23
4.43218581017798
 33
0.0
  0
LWPOLYLINE
  5
611
330
1F
100
AcDbEntity
  8
Dimensions
100
AcDbPolyline
 90
        3
 70
     0
 43
0.0
 10
4.767667723179196
 20
4.419454817955228
 10
5.103021465432484
 20
4.634275455003724
 10
5.284450035284016
 20
4.634275455003724
  0
TEXT
  5
612
330
1F
100
AcDbEntity
  8
Dimensions
100
AcDbText
 10
5.298767297608313
 20
4.587159609391978
 30
0.0
 40
0.090714284925766
  1
PCB PAD
 41
0.605
  7
SLDTEXTSTYLE0
100
AcDbText
  0
SOLID
  5
613
330
1F
100
AcDbEntity
  8
Dimensions
100
AcDbTrace
 10
4.780707197233343
 20
4.570558049659365
 30
0.0
 11
4.720899501495554
 21
4.500695995459233
 31
0.0
 12
4.754816385290718
 22
4.586178812914856
 32
0.0
 13
4.754816385290718
 23
4.586178812914856
 33
0.0
  0
LWPOLYLINE
  5
614
330
1F
100
AcDbEntity
  8
Dimensions
100
AcDbPolyline
 90
        3
 70
     0
 43
0.0
 10
4.767761791262031
 20
4.578368431287111
 10
4.993726905686353
 20
4.952896883416173
 10
5.175155475537884
 20
4.952896883416173
  0
TEXT
  5
615
330
1F
100
AcDbEntity
  8
Dimensions
100
AcDbText
 10
5.189472473301201
 20
4.905783426975199
 30
0.0
 40
0.090714284925766
  1
SOLDER MASK OPENING
 41
0.605
  7
SLDTEXTSTYLE0
100
AcDbText
  0
SOLID
  5
616
330
1F
100
AcDbEntity
  8
Dimensions
100
AcDbTrace
 10
4.565633131208596
 20
2.361430270096154
 30
0.0
 11
4.491281771581143
 21
2.30730502267801
 31
0.0
 12
4.544060004498525
 22
2.382618535520292
 32
0.0
 13
4.544060004498525
 23
2.382618535520292
 33
0.0
  0
LWPOLYLINE
  5
617
330
1F
100
AcDbEntity
  8
Dimensions
100
AcDbPolyline
 90
        3
 70
     0
 43
0.0
 10
4.554846567853561
 20
2.372024402808223
 10
4.923269921817281
 20
2.747139757411709
 10
5.104698491668813
 20
2.747139757411709
  0
MTEXT
  5
618
330
1F
100
AcDbEntity
  8
Dimensions
100
AcDbMText
 10
5.119011489846275
 20
2.790725870036293
 30
0.0
 40
0.090714284925766
 41
0.0
 71
     1
 72
     1
  1
COMPONENT
  7
SLDTEXTSTYLE0
 73
     1
 44
1.0
1001
ACAD
1000
MTEXTBEGIN
1070
    73
1070
     1
1070
    44
1040
1.0
1070
    74
1070
     0
1000
MTEXTEND
  0
MTEXT
  5
619
330
1F
100
AcDbEntity
  8
Dimensions
100
AcDbMText
 10
5.250043226503199
 20
2.669773491597005
 30
0.0
 40
0.090714284925766
 41
0.0
 71
     1
 72
     1
  1
OUTLINE
  7
SLDTEXTSTYLE0
 73
     1
 44
1.0
1001
ACAD
1000
MTEXTBEGIN
1070
    73
1070
     1
1070
    44
1040
1.0
1070
    74
1070
     0
1000
MTEXTEND
  0
LINE
  5
61A
330
1F
100
AcDbEntity
  8
Dimensions
100
AcDbLine
 10
3.593067493674448
 20
2.965696008801991
 30
0.0
 11
6.751281751936464
 21
2.965696008801991
 31
0.0
  0
LINE
  5
61B
330
1F
100
AcDbEntity
  8
Dimensions
100
AcDbLine
 10
3.593067493674452
 20
4.165695998371178
 30
0.0
 11
6.751281751936464
 21
4.165695998371178
 31
0.0
  0
LINE
  5
61C
330
1F
100
AcDbEntity
  8
Dimensions
100
AcDbLine
 10
6.751281751936464
 20
3.056410293727756
 30
0.0
 11
6.751281751936464
 21
3.638049653983443
 31
0.0
  0
LINE
  5
61D
330
1F
100
AcDbEntity
  8
Dimensions
100
AcDbLine
 10
6.751281751936464
 20
4.074981713445412
 30
0.0
 11
6.751281751936464
 21
3.770134613772815
 31
0.0
  0
SOLID
  5
61E
330
1F
100
AcDbEntity
  8
Dimensions
100
AcDbTrace
 10
6.736162704448837
 20
3.056410293727756
 30
0.0
 11
6.766400799424092
 21
3.056410293727756
 31
0.0
 12
6.751281751936464
 22
2.965696008801991
 32
0.0
 13
6.751281751936464
 23
2.965696008801991
 33
0.0
  0
SOLID
  5
61F
330
1F
100
AcDbEntity
  8
Dimensions
100
AcDbTrace
 10
6.736162704448837
 20
4.074981713445412
 30
0.0
 11
6.766400799424092
 21
4.074981713445412
 31
0.0
 12
6.751281751936464
 22
4.165695998371178
 32
0.0
 13
6.751281751936464
 23
4.165695998371178
 33
0.0
  0
MTEXT
  5
620
330
1F
100
AcDbEntity
  8
Dimensions
100
AcDbMText
 10
6.751281751936463
 20
3.748120453807921
 30
0.0
 40
0.0880566398595814
 41
0.0
 71
     2
 72
     1
  1
\A1;1.2
  7
SLDTEXTSTYLE0
 73
     1
 44
1.0
1001
ACAD
1000
MTEXTBEGIN
1070
    73
1070
     1
1070
    44
1040
1.0
1070
    74
1070
     0
1000
MTEXTEND
  0
LINE
  5
621
330
1F
100
AcDbEntity
  8
Dimensions
100
AcDbLine
 10
3.693067492805219
 20
4.265695997501944
 30
0.0
 11
7.094138891813375
 21
4.265695997501943
 31
0.0
  0
LINE
  5
622
330
1F
100
AcDbEntity
  8
Dimensions
100
AcDbLine
 10
3.693067492805214
 20
2.865696009671225
 30
0.0
 11
7.094138891813375
 21
2.865696009671225
 31
0.0
  0
LINE
  5
623
330
1F
100
AcDbEntity
  8
Dimensions
100
AcDbLine
 10
7.094138891813375
 20
4.174981712576177
 30
0.0
 11
7.094138891813375
 21
3.586965097475842
 31
0.0
  0
LINE
  5
624
330
1F
100
AcDbEntity
  8
Dimensions
100
AcDbLine
 10
7.094138891813375
 20
2.95641029459699
 30
0.0
 11
7.094138891813375
 21
3.45488013768647
 31
0.0
  0
SOLID
  5
625
330
1F
100
AcDbEntity
  8
Dimensions
100
AcDbTrace
 10
7.079019844325747
 20
4.174981712576177
 30
0.0
 11
7.109257939301002
 21
4.174981712576177
 31
0.0
 12
7.094138891813375
 22
4.265695997501943
 32
0.0
 13
7.094138891813375
 23
4.265695997501943
 33
0.0
  0
SOLID
  5
626
330
1F
100
AcDbEntity
  8
Dimensions
100
AcDbTrace
 10
7.079019844325747
 20
2.95641029459699
 30
0.0
 11
7.109257939301002
 21
2.95641029459699
 31
0.0
 12
7.094138891813375
 22
2.865696009671225
 32
0.0
 13
7.094138891813375
 23
2.865696009671225
 33
0.0
  0
MTEXT
  5
627
330
1F
100
AcDbEntity
  8
Dimensions
100
AcDbMText
 10
7.094138891813374
 20
3.564950937510948
 30
0.0
 40
0.0880566398595814
 41
0.0
 71
     2
 72
     1
  1
\A1;1.4
  7
SLDTEXTSTYLE0
 73
     1
 44
1.0
1001
ACAD
1000
MTEXTBEGIN
1070
    73
1070
     1
1070
    44
1040
1.0
1070
    74
1070
     0
1000
MTEXTEND
  0
LINE
  5
628
330
1F
100
AcDbEntity
  8
Dimensions
100
AcDbLine
 10
1.491281797658186
 20
5.06748170481827
 30
0.0
 11
1.491281797658186
 21
5.699729421531264
 31
0.0
  0
LINE
  5
629
330
1F
100
AcDbEntity
  8
Dimensions
100
AcDbLine
 10
4.491281771581153
 20
5.067481704818258
 30
0.0
 11
4.491281771581153
 21
5.699729421531264
 31
0.0
  0
LINE
  5
62A
330
1F
100
AcDbEntity
  8
Dimensions
100
AcDbLine
 10
1.581996082583952
 20
5.699729421531264
 30
0.0
 11
2.951509535616431
 21
5.699729421531264
 31
0.0
  0
LINE
  5
62B
330
1F
100
AcDbEntity
  8
Dimensions
100
AcDbLine
 10
4.400567486655387
 20
5.699729421531264
 30
0.0
 11
3.03105403362292
 21
5.699729421531264
 31
0.0
  0
SOLID
  5
62C
330
1F
100
AcDbEntity
  8
Dimensions
100
AcDbTrace
 10
1.581996082583952
 20
5.714848469018892
 30
0.0
 11
1.581996082583952
 21
5.684610374043637
 31
0.0
 12
1.491281797658186
 22
5.699729421531264
 32
0.0
 13
1.491281797658186
 23
5.699729421531264
 33
0.0
  0
SOLID
  5
62D
330
1F
100
AcDbEntity
  8
Dimensions
100
AcDbTrace
 10
4.400567486655387
 20
5.714848469018892
 30
0.0
 11
4.400567486655387
 21
5.684610374043637
 31
0.0
 12
4.491281771581153
 22
5.699729421531264
 32
0.0
 13
4.491281771581153
 23
5.699729421531264
 33
0.0
  0
MTEXT
  5
62E
330
1F
100
AcDbEntity
  8
Dimensions
100
AcDbMText
 10
2.991281784619676
 20
5.743757741461055
 30
0.0
 40
0.0880566398595814
 41
0.0
 71
     2
 72
     1
  1
\A1;3
  7
SLDTEXTSTYLE0
 73
     1
 44
1.0
1001
ACAD
1000
MTEXTBEGIN
1070
    73
1070
     1
1070
    44
1040
1.0
1070
    74
1070
     0
1000
MTEXTEND
  0
LINE
  5
62F
330
1F
100
AcDbEntity
  8
Dimensions
100
AcDbLine
 10
1.291281799396662
 20
4.442481710251002
 30
0.0
 11
1.291281799396662
 21
5.855072297290489
 31
0.0
  0
LINE
  5
630
330
1F
100
AcDbEntity
  8
Dimensions
100
AcDbLine
 10
4.691281769842687
 20
4.442481710250967
 30
0.0
 11
4.691281769842687
 21
5.855072297290489
 31
0.0
  0
LINE
  5
631
330
1F
100
AcDbEntity
  8
Dimensions
100
AcDbLine
 10
1.381996084322428
 20
5.855072297290489
 30
0.0
 11
2.915993357539734
 21
5.855072297290489
 31
0.0
  0
LINE
  5
632
330
1F
100
AcDbEntity
  8
Dimensions
100
AcDbLine
 10
4.600567484916921
 20
5.855072297290489
 30
0.0
 11
3.066570211699618
 21
5.855072297290489
 31
0.0
  0
SOLID
  5
633
330
1F
100
AcDbEntity
  8
Dimensions
100
AcDbTrace
 10
1.381996084322428
 20
5.870191344778117
 30
0.0
 11
1.381996084322428
 21
5.839953249802861
 31
0.0
 12
1.291281799396662
 22
5.855072297290489
 32
0.0
 13
1.291281799396662
 23
5.855072297290489
 33
0.0
  0
SOLID
  5
634
330
1F
100
AcDbEntity
  8
Dimensions
100
AcDbTrace
 10
4.600567484916921
 20
5.870191344778117
 30
0.0
 11
4.600567484916921
 21
5.839953249802861
 31
0.0
 12
4.691281769842687
 22
5.855072297290489
 32
0.0
 13
4.691281769842687
 23
5.855072297290489
 33
0.0
  0
MTEXT
  5
635
330
1F
100
AcDbEntity
  8
Dimensions
100
AcDbMText
 10
2.991281784619676
 20
5.89910061722028
 30
0.0
 40
0.0880566398595814
 41
0.0
 71
     2
 72
     1
  1
\A1;3.4
  7
SLDTEXTSTYLE0
 73
     1
 44
1.0
1001
ACAD
1000
MTEXTBEGIN
1070
    73
1070
     1
1070
    44
1040
1.0
1070
    74
1070
     0
1000
MTEXTEND
  0
LINE
  5
636
330
1F
100
AcDbEntity
  8
Dimensions
100
AcDbLine
 10
3.741281778100414
 20
5.392902065358492
 30
0.0
 11
3.741281778100414
 21
5.53902464771229
 31
0.0
  0
LINE
  5
637
330
1F
100
AcDbEntity
  8
Dimensions
100
AcDbLine
 10
2.241281791138929
 20
5.392902065358497
 30
0.0
 11
2.241281791138929
 21
5.53902464771229
 31
0.0
  0
LINE
  5
638
330
1F
100
AcDbEntity
  8
Dimensions
100
AcDbLine
 10
3.650567493174648
 20
5.53902464771229
 30
0.0
 11
3.079888778478379
 21
5.53902464771229
 31
0.0
  0
LINE
  5
639
330
1F
100
AcDbEntity
  8
Dimensions
100
AcDbLine
 10
2.331996076064695
 20
5.53902464771229
 30
0.0
 11
2.902674790760972
 21
5.53902464771229
 31
0.0
  0
SOLID
  5
63A
330
1F
100
AcDbEntity
  8
Dimensions
100
AcDbTrace
 10
3.650567493174648
 20
5.554143695199918
 30
0.0
 11
3.650567493174648
 21
5.523905600224662
 31
0.0
 12
3.741281778100414
 22
5.53902464771229
 32
0.0
 13
3.741281778100414
 23
5.53902464771229
 33
0.0
  0
SOLID
  5
63B
330
1F
100
AcDbEntity
  8
Dimensions
100
AcDbTrace
 10
2.331996076064695
 20
5.554143695199918
 30
0.0
 11
2.331996076064695
 21
5.523905600224662
 31
0.0
 12
2.241281791138929
 22
5.53902464771229
 32
0.0
 13
2.241281791138929
 23
5.53902464771229
 33
0.0
  0
MTEXT
  5
63C
330
1F
100
AcDbEntity
  8
Dimensions
100
AcDbMText
 10
2.991281784619676
 20
5.583052967642081
 30
0.0
 40
0.0880566398595814
 41
0.0
 71
     2
 72
     1
  1
\A1;1.50
  7
SLDTEXTSTYLE0
 73
     1
 44
1.0
1001
ACAD
1000
MTEXTBEGIN
1070
    73
1070
     1
1070
    44
1040
1.0
1070
    74
1070
     0
1000
MTEXTEND
  0
LINE
  5
63D
330
1F
100
AcDbEntity
  8
Dimensions
100
AcDbLine
 10
1.289496085126445
 20
2.690696011192412
 30
0.0
 11
1.111570228693123
 21
2.690696011192412
 31
0.0
  0
LINE
  5
63E
330
1F
100
AcDbEntity
  8
Dimensions
100
AcDbLine
 10
1.289496085126448
 20
2.940696009019326
 30
0.0
 11
1.111570228693123
 21
2.940696009019326
 31
0.0
  0
LINE
  5
63F
330
1F
100
AcDbEntity
  8
Dimensions
100
AcDbLine
 10
1.111570228693123
 20
2.849981724093561
 30
0.0
 11
1.111570228693123
 21
2.781410296118178
 31
0.0
  0
LINE
  5
640
330
1F
100
AcDbEntity
  8
Dimensions
100
AcDbLine
 10
1.111570228693123
 20
2.690696011192412
 30
0.0
 11
1.111570228693123
 21
2.487849852090428
 31
0.0
  0
LINE
  5
641
330
1F
100
AcDbEntity
  8
Dimensions
100
AcDbLine
 10
1.111570228693123
 20
2.487849852090428
 30
0.0
 11
1.020855943767358
 21
2.487849852090428
 31
0.0
  0
SOLID
  5
642
330
1F
100
AcDbEntity
  8
Dimensions
100
AcDbTrace
 10
1.096451181205496
 20
2.849981724093561
 30
0.0
 11
1.126689276180751
 21
2.849981724093561
 31
0.0
 12
1.111570228693123
 22
2.940696009019326
 32
0.0
 13
1.111570228693123
 23
2.940696009019326
 33
0.0
  0
SOLID
  5
643
330
1F
100
AcDbEntity
  8
Dimensions
100
AcDbTrace
 10
1.096451181205496
 20
2.781410296118178
 30
0.0
 11
1.126689276180751
 21
2.781410296118178
 31
0.0
 12
1.111570228693123
 22
2.690696011192412
 32
0.0
 13
1.111570228693123
 23
2.690696011192412
 33
0.0
  0
MTEXT
  5
644
330
1F
100
AcDbEntity
  8
Dimensions
100
AcDbMText
 10
0.9455675166874154
 20
2.53187817202022
 30
0.0
 40
0.0880566398595814
 41
0.0
 71
     2
 72
     1
  1
\A1;.25
  7
SLDTEXTSTYLE0
 73
     1
 44
1.0
1001
ACAD
1000
MTEXTBEGIN
1070
    73
1070
     1
1070
    44
1040
1.0
1070
    74
1070
     0
1000
MTEXTEND
  0
LINE
  5
645
330
1F
100
AcDbEntity
  8
Dimensions
100
AcDbLine
 10
1.489496083387983
 20
2.065696016625109
 30
0.0
 11
0.5700834548795793
 21
2.065696016625109
 31
0.0
  0
LINE
  5
646
330
1F
100
AcDbEntity
  8
Dimensions
100
AcDbLine
 10
1.489496083387994
 20
5.065695990548078
 30
0.0
 11
0.5700834548795799
 21
5.065695990548078
 31
0.0
  0
LINE
  5
647
330
1F
100
AcDbEntity
  8
Dimensions
100
AcDbLine
 10
0.5700834548795794
 20
2.156410301550875
 30
0.0
 11
0.5700834548795797
 21
3.684194557840527
 31
0.0
  0
LINE
  5
648
330
1F
100
AcDbEntity
  8
Dimensions
100
AcDbLine
 10
0.5700834548795801
 20
4.974981705622311
 30
0.0
 11
0.5700834548795797
 21
3.816279517629899
 31
0.0
  0
SOLID
  5
649
330
1F
100
AcDbEntity
  8
Dimensions
100
AcDbTrace
 10
0.5549644073919518
 20
2.156410301550875
 30
0.0
 11
0.585202502367207
 21
2.156410301550875
 31
0.0
 12
0.5700834548795794
 22
2.065696016625109
 32
0.0
 13
0.5700834548795794
 23
2.065696016625109
 33
0.0
  0
SOLID
  5
64A
330
1F
100
AcDbEntity
  8
Dimensions
100
AcDbTrace
 10
0.5549644073919524
 20
4.974981705622311
 30
0.0
 11
0.5852025023672076
 21
4.974981705622311
 31
0.0
 12
0.5700834548795801
 22
5.065695990548078
 32
0.0
 13
0.5700834548795801
 23
5.065695990548078
 33
0.0
  0
MTEXT
  5
64B
330
1F
100
AcDbEntity
  8
Dimensions
100
AcDbMText
 10
0.570083454879579
 20
3.794265357665004
 30
0.0
 40
0.0880566398595814
 41
0.0
 71
     2
 72
     1
  1
\A1;3
  7
SLDTEXTSTYLE0
 73
     1
 44
1.0
1001
ACAD
1000
MTEXTBEGIN
1070
    73
1070
     1
1070
    44
1040
1.0
1070
    74
1070
     0
1000
MTEXTEND
  0
LINE
  5
64C
330
1F
100
AcDbEntity
  8
Dimensions
100
AcDbLine
 10
2.11449607795528
 20
5.265695988809605
 30
0.0
 11
0.3657125752689629
 21
5.265695988809606
 31
0.0
  0
LINE
  5
64D
330
1F
100
AcDbEntity
  8
Dimensions
100
AcDbLine
 10
2.114496077955267
 20
1.865696018363575
 30
0.0
 11
0.3657125752689622
 21
1.865696018363575
 31
0.0
  0
LINE
  5
64E
330
1F
100
AcDbEntity
  8
Dimensions
100
AcDbLine
 10
0.365712575268963
 20
5.17498170388384
 30
0.0
 11
0.3657125752689627
 21
3.631738483481285
 31
0.0
  0
LINE
  5
64F
330
1F
100
AcDbEntity
  8
Dimensions
100
AcDbLine
 10
0.3657125752689623
 20
1.956410303289341
 30
0.0
 11
0.3657125752689627
 21
3.499653523691913
 31
0.0
  0
SOLID
  5
650
330
1F
100
AcDbEntity
  8
Dimensions
100
AcDbTrace
 10
0.3505935277813354
 20
5.17498170388384
 30
0.0
 11
0.3808316227565907
 21
5.17498170388384
 31
0.0
 12
0.365712575268963
 22
5.265695988809606
 32
0.0
 13
0.365712575268963
 23
5.265695988809606
 33
0.0
  0
SOLID
  5
651
330
1F
100
AcDbEntity
  8
Dimensions
100
AcDbTrace
 10
0.3505935277813347
 20
1.956410303289341
 30
0.0
 11
0.38083162275659
 21
1.956410303289341
 31
0.0
 12
0.3657125752689623
 22
1.865696018363575
 32
0.0
 13
0.3657125752689623
 23
1.865696018363575
 33
0.0
  0
MTEXT
  5
652
330
1F
100
AcDbEntity
  8
Dimensions
100
AcDbMText
 10
0.3657125752689621
 20
3.60972432351639
 30
0.0
 40
0.0880566398595814
 41
0.0
 71
     2
 72
     1
  1
\A1;3.4
  7
SLDTEXTSTYLE0
 73
     1
 44
1.0
1001
ACAD
1000
MTEXTBEGIN
1070
    73
1070
     1
1070
    44
1040
1.0
1070
    74
1070
     0
1000
MTEXTEND
  0
LINE
  5
653
330
1F
100
AcDbEntity
  8
Dimensions
100
AcDbLine
 10
1.123931087271133
 20
3.815696001413521
 30
0.0
 11
0.945567516687417
 21
3.815696001413521
 31
0.0
  0
LINE
  5
654
330
1F
100
AcDbEntity
  8
Dimensions
100
AcDbLine
 10
1.123931087271134
 20
4.315695997067349
 30
0.0
 11
0.945567516687417
 21
4.315695997067349
 31
0.0
  0
LINE
  5
655
330
1F
100
AcDbEntity
  8
Dimensions
100
AcDbLine
 10
0.945567516687417
 20
3.906410286339287
 30
0.0
 11
0.945567516687417
 21
3.999653519345748
 31
0.0
  0
LINE
  5
656
330
1F
100
AcDbEntity
  8
Dimensions
100
AcDbLine
 10
0.945567516687417
 20
4.224981712141583
 30
0.0
 11
0.945567516687417
 21
4.131738479135119
 31
0.0
  0
SOLID
  5
657
330
1F
100
AcDbEntity
  8
Dimensions
100
AcDbTrace
 10
0.9304484691997892
 20
3.906410286339287
 30
0.0
 11
0.9606865641750447
 21
3.906410286339287
 31
0.0
 12
0.945567516687417
 22
3.815696001413521
 32
0.0
 13
0.945567516687417
 23
3.815696001413521
 33
0.0
  0
SOLID
  5
658
330
1F
100
AcDbEntity
  8
Dimensions
100
AcDbTrace
 10
0.9304484691997894
 20
4.224981712141583
 30
0.0
 11
0.9606865641750449
 21
4.224981712141583
 31
0.0
 12
0.945567516687417
 22
4.315695997067349
 32
0.0
 13
0.945567516687417
 23
4.315695997067349
 33
0.0
  0
MTEXT
  5
659
330
1F
100
AcDbEntity
  8
Dimensions
100
AcDbMText
 10
0.9455675166874163
 20
4.109724319170225
 30
0.0
 40
0.0880566398595814
 41
0.0
 71
     2
 72
     1
  1
\A1;.50
  7
SLDTEXTSTYLE0
 73
     1
 44
1.0
1001
ACAD
1000
MTEXTBEGIN
1070
    73
1070
     1
1070
    44
1040
1.0
1070
    74
1070
     0
1000
MTEXTEND
  0
LINE
  5
65A
330
1F
100
AcDbEntity
  8
Dimensions
100
AcDbLine
 10
1.123931087271129
 20
2.815696010105865
 30
0.0
 11
0.7741389467489595
 21
2.815696010105865
 31
0.0
  0
LINE
  5
65B
330
1F
100
AcDbEntity
  8
Dimensions
100
AcDbLine
 10
1.123931087271134
 20
4.315695997067349
 30
0.0
 11
0.7741389467489597
 21
4.315695997067349
 31
0.0
  0
LINE
  5
65C
330
1F
100
AcDbEntity
  8
Dimensions
100
AcDbLine
 10
0.7741389467489595
 20
2.906410295031631
 30
0.0
 11
0.7741389467489596
 21
3.499653523691909
 31
0.0
  0
LINE
  5
65D
330
1F
100
AcDbEntity
  8
Dimensions
100
AcDbLine
 10
0.7741389467489597
 20
4.224981712141583
 30
0.0
 11
0.7741389467489596
 21
3.63173848348128
 31
0.0
  0
SOLID
  5
65E
330
1F
100
AcDbEntity
  8
Dimensions
100
AcDbTrace
 10
0.7590198992613317
 20
2.906410295031631
 30
0.0
 11
0.7892579942365871
 21
2.906410295031631
 31
0.0
 12
0.7741389467489595
 22
2.815696010105865
 32
0.0
 13
0.7741389467489595
 23
2.815696010105865
 33
0.0
  0
SOLID
  5
65F
330
1F
100
AcDbEntity
  8
Dimensions
100
AcDbTrace
 10
0.7590198992613321
 20
4.224981712141583
 30
0.0
 11
0.7892579942365873
 21
4.224981712141583
 31
0.0
 12
0.7741389467489597
 22
4.315695997067349
 32
0.0
 13
0.7741389467489597
 23
4.315695997067349
 33
0.0
  0
MTEXT
  5
660
330
1F
100
AcDbEntity
  8
Dimensions
100
AcDbMText
 10
0.774138946748959
 20
3.609724323516386
 30
0.0
 40
0.0880566398595814
 41
0.0
 71
     2
 72
     1
  1
\A1;1.5
  7
SLDTEXTSTYLE0
 73
     1
 44
1.0
1001
ACAD
1000
MTEXTBEGIN
1070
    73
1070
     1
1070
    44
1040
1.0
1070
    74
1070
     0
1000
MTEXTEND
  0
MTEXT
  5
661
330
1F
100
AcDbEntity
  8
Detail
100
AcDbMText
 10
5.097923582061726
 20
2.073824653099157
 30
0.0
 40
0.090714284925766
 41
0.0
 71
     1
 72
     1
  1
DETAIL B 
  7
SLDTEXTSTYLE0
 73
     1
 44
1.0
1001
ACAD
1000
MTEXTBEGIN
1070
    73
1070
     1
1070
    44
1040
1.0
1070
    74
1070
     0
1000
MTEXTEND
  0
MTEXT
  5
662
330
1F
100
AcDbEntity
  8
Detail
100
AcDbMText
 10
5.017288689711417
 20
1.952872274659869
 30
0.0
 40
0.090714284925766
 41
0.0
 71
     1
 72
     1
  1
SCALE 40 : 1
  7
SLDTEXTSTYLE0
 73
     1
 44
1.0
1001
ACAD
1000
MTEXTBEGIN
1070
    73
1070
     1
1070
    44
1040
1.0
1070
    74
1070
     0
1000
MTEXTEND
  0
LINE
  5
663
330
1F
100
AcDbEntity
  8
Dimensions
100
AcDbLine
 10
6.087624029571121
 20
1.488192246410222
 30
0.0
 11
5.748346736259637
 21
1.488192246410222
 31
0.0
  0
LINE
  5
664
330
1F
100
AcDbEntity
  8
Dimensions
100
AcDbLine
 10
5.748346736259637
 20
1.556763674385604
 30
0.0
 11
6.119478355030577
 21
1.556763674385604
 31
0.0
  0
LINE
  5
665
330
1F
100
AcDbEntity
  8
Dimensions
100
AcDbLine
 10
5.809746606177864
 20
1.64747795931137
 30
0.0
 11
5.809746606177864
 21
1.738192244237136
 31
0.0
  0
LINE
  5
666
330
1F
100
AcDbEntity
  8
Dimensions
100
AcDbLine
 10
5.809746606177864
 20
1.397477961484456
 30
0.0
 11
5.809746606177864
 21
1.30676367655869
 31
0.0
  0
LINE
  5
667
330
1F
100
AcDbEntity
  8
Dimensions
100
AcDbLine
 10
5.809746606177864
 20
1.30676367655869
 30
0.0
 11
5.719032321252099
 21
1.30676367655869
 31
0.0
  0
SOLID
  5
668
330
1F
100
AcDbEntity
  8
Dimensions
100
AcDbTrace
 10
5.794627558690237
 20
1.64747795931137
 30
0.0
 11
5.824865653665493
 21
1.64747795931137
 31
0.0
 12
5.809746606177864
 22
1.556763674385604
 32
0.0
 13
5.809746606177864
 23
1.556763674385604
 33
0.0
  0
SOLID
  5
669
330
1F
100
AcDbEntity
  8
Dimensions
100
AcDbTrace
 10
5.794627558690237
 20
1.397477961484456
 30
0.0
 11
5.824865653665493
 21
1.397477961484456
 31
0.0
 12
5.809746606177864
 22
1.488192246410222
 32
0.0
 13
5.809746606177864
 23
1.488192246410222
 33
0.0
  0
MTEXT
  5
66A
330
1F
100
AcDbEntity
  8
Dimensions
100
AcDbMText
 10
5.395130647635272
 20
1.424172529704799
 30
0.0
 40
0.0880566398595814
 41
0.0
 71
     2
 72
     1
  1
\A1;.060~0.075\PMASK OPENING\P
  7
SLDTEXTSTYLE0
 73
     1
 44
1.0
1001
ACAD
1000
MTEXTBEGIN
1070
    73
1070
     1
1070
    44
1040
1.0
1070
    74
1070
     0
1000
MTEXTEND
  0
LINE
  5
66B
330
1F
100
AcDbEntity
  8
Dimensions
100
AcDbLine
 10
5.568474570072027
 20
2.214062172028589
 30
0.0
 11
5.870403288014937
 21
2.214062172028589
 31
0.0
  0
LINE
  5
66C
330
1F
100
AcDbEntity
  8
Dimensions
100
AcDbLine
 10
5.870403288014937
 20
2.214062172028589
 30
0.0
 11
6.071662617752759
 21
2.160104909154239
 31
0.0
  0
MTEXT
  5
66D
330
1F
100
AcDbEntity
  8
Dimensions
100
AcDbMText
 10
5.351121430685295
 20
2.25809049195838
 30
0.0
 40
0.0880566398595814
 41
0.0
 71
     1
 72
     1
  1
\A1;R.125
  7
SLDTEXTSTYLE0
 73
     1
 44
1.0
1001
ACAD
1000
MTEXTBEGIN
1070
    73
1070
     1
1070
    44
1040
1.0
1070
    74
1070
     0
1000
MTEXTEND
  0
SOLID
  5
66E
330
1F
100
AcDbEntity
  8
Dimensions
100
AcDbTrace
 10
6.07557774531241
 20
2.174708243469552
 30
0.0
 11
6.067747490193108
 21
2.145501574838927
 31
0.0
 12
6.159282623644639
 22
2.136614143796335
 32
0.0
 13
6.159282623644639
 23
2.136614143796335
 33
0.0
  0
LINE
  5
66F
330
1F
100
AcDbEntity
  8
Dimensions
100
AcDbLine
 10
6.294695456342616
 20
2.099620812524045
 30
0.0
 11
6.29983831344077
 21
2.099620812524046
 31
0.0
  0
LINE
  5
670
330
1F
100
AcDbEntity
  8
Dimensions
100
AcDbLine
 10
6.297266884891694
 20
2.097049383974968
 30
0.0
 11
6.297266884891694
 21
2.102192241073122
 31
0.0
  0
LINE
  5
671
330
1F
100
AcDbEntity
  8
Dimensions
100
AcDbLine
 10
6.868695451353237
 20
2.359174907894461
 30
0.0
 11
6.868695451353237
 21
2.574243240265456
 31
0.0
  0
LINE
  5
672
330
1F
100
AcDbEntity
  8
Dimensions
100
AcDbLine
 10
6.297266884891719
 20
2.365204696933425
 30
0.0
 11
6.297266884891719
 21
2.574243240265456
 31
0.0
  0
LINE
  5
673
330
1F
100
AcDbEntity
  8
Dimensions
100
AcDbLine
 10
6.77798116642747
 20
2.574243240265456
 30
0.0
 11
6.646679069122403
 21
2.574243240265456
 31
0.0
  0
LINE
  5
674
330
1F
100
AcDbEntity
  8
Dimensions
100
AcDbLine
 10
6.387981169817485
 20
2.574243240265456
 30
0.0
 11
6.504981259481693
 21
2.574243240265456
 31
0.0
  0
SOLID
  5
675
330
1F
100
AcDbEntity
  8
Dimensions
100
AcDbTrace
 10
6.77798116642747
 20
2.589362287753083
 30
0.0
 11
6.77798116642747
 21
2.559124192777828
 31
0.0
 12
6.868695451353237
 22
2.574243240265456
 32
0.0
 13
6.868695451353237
 23
2.574243240265456
 33
0.0
  0
SOLID
  5
676
330
1F
100
AcDbEntity
  8
Dimensions
100
AcDbTrace
 10
6.387981169817485
 20
2.589362287753083
 30
0.0
 11
6.387981169817485
 21
2.559124192777828
 31
0.0
 12
6.297266884891719
 22
2.574243240265456
 32
0.0
 13
6.297266884891719
 23
2.574243240265456
 33
0.0
  0
MTEXT
  5
677
330
1F
100
AcDbEntity
  8
Dimensions
100
AcDbMText
 10
6.575830164302049
 20
2.618271560195247
 30
0.0
 40
0.0880566398595814
 41
0.0
 71
     2
 72
     1
  1
\A1;.50
  7
SLDTEXTSTYLE0
 73
     1
 44
1.0
1001
ACAD
1000
MTEXTBEGIN
1070
    73
1070
     1
1070
    44
1040
1.0
1070
    74
1070
     0
1000
MTEXTEND
  0
LINE
  5
678
330
1F
100
AcDbEntity
  8
Dimensions
100
AcDbLine
 10
7.01333830723878
 20
1.5567636743856
 30
0.0
 11
7.461306708176876
 21
1.5567636743856
 31
0.0
  0
LINE
  5
679
330
1F
100
AcDbEntity
  8
Dimensions
100
AcDbLine
 10
7.212622607843364
 20
1.785335100970207
 30
0.0
 11
7.461306708176876
 21
1.785335100970207
 31
0.0
  0
LINE
  5
67A
330
1F
100
AcDbEntity
  8
Dimensions
100
AcDbLine
 10
7.461306708176876
 20
1.466049389459835
 30
0.0
 11
7.461306708176876
 21
1.375335104534069
 31
0.0
  0
LINE
  5
67B
330
1F
100
AcDbEntity
  8
Dimensions
100
AcDbLine
 10
7.461306708176876
 20
1.876049385895973
 30
0.0
 11
7.461306708176876
 21
1.966763670821739
 31
0.0
  0
SOLID
  5
67C
330
1F
100
AcDbEntity
  8
Dimensions
100
AcDbTrace
 10
7.44618766068925
 20
1.466049389459835
 30
0.0
 11
7.476425755664504
 21
1.466049389459835
 31
0.0
 12
7.461306708176876
 22
1.5567636743856
 32
0.0
 13
7.461306708176876
 23
1.5567636743856
 33
0.0
  0
SOLID
  5
67D
330
1F
100
AcDbEntity
  8
Dimensions
100
AcDbTrace
 10
7.44618766068925
 20
1.876049385895973
 30
0.0
 11
7.476425755664504
 21
1.876049385895973
 31
0.0
 12
7.461306708176876
 22
1.785335100970207
 32
0.0
 13
7.461306708176876
 23
1.785335100970207
 33
0.0
  0
MTEXT
  5
67E
330
1F
100
AcDbEntity
  8
Dimensions
100
AcDbMText
 10
7.461306708176876
 20
1.713276734745129
 30
0.0
 40
0.0880566398595814
 41
0.0
 71
     2
 72
     1
  1
\A1;.20
  7
SLDTEXTSTYLE0
 73
     1
 44
1.0
1001
ACAD
1000
MTEXTBEGIN
1070
    73
1070
     1
1070
    44
1040
1.0
1070
    74
1070
     0
1000
MTEXTEND
  0
LINE
  5
67F
330
1F
100
AcDbEntity
  8
Dimensions
100
AcDbLine
 10
7.011552592968588
 20
1.554977960115408
 30
0.0
 11
7.011552592968588
 21
1.395660053483628
 31
0.0
  0
LINE
  5
680
330
1F
100
AcDbEntity
  8
Dimensions
100
AcDbLine
 10
6.725838309737828
 20
1.554977960115409
 30
0.0
 11
6.725838309737828
 21
1.395660053483628
 31
0.0
  0
LINE
  5
681
330
1F
100
AcDbEntity
  8
Dimensions
100
AcDbLine
 10
6.816552594663595
 20
1.395660053483628
 30
0.0
 11
6.920838308042821
 21
1.395660053483628
 31
0.0
  0
LINE
  5
682
330
1F
100
AcDbEntity
  8
Dimensions
100
AcDbLine
 10
7.011552592968588
 20
1.395660053483628
 30
0.0
 11
7.206663676707496
 21
1.395660053483628
 31
0.0
  0
SOLID
  5
683
330
1F
100
AcDbEntity
  8
Dimensions
100
AcDbTrace
 10
6.816552594663595
 20
1.410779100971256
 30
0.0
 11
6.816552594663595
 21
1.380541005996
 31
0.0
 12
6.725838309737828
 22
1.395660053483628
 32
0.0
 13
6.725838309737828
 23
1.395660053483628
 33
0.0
  0
SOLID
  5
684
330
1F
100
AcDbEntity
  8
Dimensions
100
AcDbTrace
 10
6.920838308042821
 20
1.410779100971256
 30
0.0
 11
6.920838308042821
 21
1.380541005996
 31
0.0
 12
7.011552592968588
 22
1.395660053483628
 32
0.0
 13
7.011552592968588
 23
1.395660053483628
 33
0.0
  0
MTEXT
  5
685
330
1F
100
AcDbEntity
  8
Dimensions
100
AcDbMText
 10
7.281952103787438
 20
1.439688373413419
 30
0.0
 40
0.0880566398595814
 41
0.0
 71
     2
 72
     1
  1
\A1;.25
  7
SLDTEXTSTYLE0
 73
     1
 44
1.0
1001
ACAD
1000
MTEXTBEGIN
1070
    73
1070
     1
1070
    44
1040
1.0
1070
    74
1070
     0
1000
MTEXTEND
  0
LINE
  5
686
330
1F
100
AcDbEntity
  8
Dimensions
100
AcDbLine
 10
6.870481165623431
 20
2.242477954139444
 30
0.0
 11
7.631480269817208
 21
2.242477954139444
 31
0.0
  0
LINE
  5
687
330
1F
100
AcDbEntity
  8
Dimensions
100
AcDbLine
 10
7.013338307238808
 20
1.556763674385622
 30
0.0
 11
7.631480269817208
 21
1.556763674385622
 31
0.0
  0
LINE
  5
688
330
1F
100
AcDbEntity
  8
Dimensions
100
AcDbLine
 10
7.631480269817208
 20
2.151763669213678
 30
0.0
 11
7.631480269817208
 21
2.088194154410046
 31
0.0
  0
LINE
  5
689
330
1F
100
AcDbEntity
  8
Dimensions
100
AcDbLine
 10
7.631480269817208
 20
1.647477959311387
 30
0.0
 11
7.631480269817208
 21
1.956109194620674
 31
0.0
  0
SOLID
  5
68A
330
1F
100
AcDbEntity
  8
Dimensions
100
AcDbTrace
 10
7.61636122232958
 20
2.151763669213678
 30
0.0
 11
7.646599317304834
 21
2.151763669213678
 31
0.0
 12
7.631480269817208
 22
2.242477954139444
 32
0.0
 13
7.631480269817208
 23
2.242477954139444
 33
0.0
  0
SOLID
  5
68B
330
1F
100
AcDbEntity
  8
Dimensions
100
AcDbTrace
 10
7.61636122232958
 20
1.647477959311387
 30
0.0
 11
7.646599317304834
 21
1.647477959311387
 31
0.0
 12
7.631480269817208
 22
1.556763674385622
 32
0.0
 13
7.631480269817208
 23
1.556763674385622
 33
0.0
  0
MTEXT
  5
68C
330
1F
100
AcDbEntity
  8
Dimensions
100
AcDbMText
 10
7.631480269817208
 20
2.066179994445152
 30
0.0
 40
0.0880566398595814
 41
0.0
 71
     2
 72
     1
  1
\A1;.60
  7
SLDTEXTSTYLE0
 73
     1
 44
1.0
1001
ACAD
1000
MTEXTBEGIN
1070
    73
1070
     1
1070
    44
1040
1.0
1070
    74
1070
     0
1000
MTEXTEND
  0
LINE
  5
68D
330
1F
100
AcDbEntity
  8
Dimensions
100
AcDbLine
 10
6.508695454482452
 20
1.486406532140028
 30
0.0
 11
6.508695454482452
 21
1.256382841849393
 31
0.0
  0
LINE
  5
68E
330
1F
100
AcDbEntity
  8
Dimensions
100
AcDbLine
 10
6.657266881762447
 20
1.486406532140028
 30
0.0
 11
6.657266881762447
 21
1.256382841849393
 31
0.0
  0
LINE
  5
68F
330
1F
100
AcDbEntity
  8
Dimensions
100
AcDbLine
 10
6.747981166688213
 20
1.256382841849393
 30
0.0
 11
6.838695451613979
 21
1.256382841849393
 31
0.0
  0
LINE
  5
690
330
1F
100
AcDbEntity
  8
Dimensions
100
AcDbLine
 10
6.417981169556686
 20
1.256382841849393
 30
0.0
 11
6.180264293760774
 21
1.256382841849393
 31
0.0
  0
SOLID
  5
691
330
1F
100
AcDbEntity
  8
Dimensions
100
AcDbTrace
 10
6.747981166688213
 20
1.271501889337021
 30
0.0
 11
6.747981166688213
 21
1.241263794361766
 31
0.0
 12
6.657266881762447
 22
1.256382841849393
 32
0.0
 13
6.657266881762447
 23
1.256382841849393
 33
0.0
  0
SOLID
  5
692
330
1F
100
AcDbEntity
  8
Dimensions
100
AcDbTrace
 10
6.417981169556686
 20
1.271501889337021
 30
0.0
 11
6.417981169556686
 21
1.241263794361766
 31
0.0
 12
6.508695454482452
 22
1.256382841849393
 32
0.0
 13
6.508695454482452
 23
1.256382841849393
 33
0.0
  0
MTEXT
  5
693
330
1F
100
AcDbEntity
  8
Dimensions
100
AcDbMText
 10
6.016185421489087
 20
1.300411161779184
 30
0.0
 40
0.0880566398595814
 41
0.0
 71
     2
 72
     1
  1
\A1;0.10~.13
  7
SLDTEXTSTYLE0
 73
     1
 44
1.0
1001
ACAD
1000
MTEXTBEGIN
1070
    73
1070
     1
1070
    44
1040
1.0
1070
    74
1070
     0
1000
MTEXTEND
  0
MTEXT
  5
694
330
1F
100
AcDbEntity
  8
Notes
100
AcDbMText
 10
0.242708779321186
 20
1.812681957883521
 30
0.0
 40
0.0604761899505106
 41
0.0
 71
     1
 72
     1
  1
Notes: (Unless Otherwise Specified).
  7
SLDTEXTSTYLE0
 73
     1
 44
1.0
1001
ACAD
1000
MTEXTBEGIN
1070
    73
1070
     1
1070
    44
1040
1.0
1070
    74
1070
     0
1000
MTEXTEND
  0
MTEXT
  5
695
330
1F
100
AcDbEntity
  8
Notes
100
AcDbMText
 10
0.242708779321186
 20
1.732047038923996
 30
0.0
 40
0.0604761899505106
 41
0.0
 71
     1
 72
     1
  1
  1) DIMENSIONS ARE PRESENTED ONLY AS A GUIDELINE. 
  7
SLDTEXTSTYLE0
 73
     1
 44
1.0
1001
ACAD
1000
MTEXTBEGIN
1070
    73
1070
     1
1070
    44
1040
1.0
1070
    74
1070
     0
1000
MTEXTEND
  0
MTEXT
  5
696
330
1F
100
AcDbEntity
  8
Notes
100
AcDbMText
 10
0.242708779321186
 20
1.65141211996447
 30
0.0
 40
0.0604761899505106
 41
0.0
 71
     1
 72
     1
  1
      DESIGNERS SHOULD USE THEIR OWN KNOWLEDGE BASE WHEN 
  7
SLDTEXTSTYLE0
 73
     1
 44
1.0
1001
ACAD
1000
MTEXTBEGIN
1070
    73
1070
     1
1070
    44
1040
1.0
1070
    74
1070
     0
1000
MTEXTEND
  0
MTEXT
  5
697
330
1F
100
AcDbEntity
  8
Notes
100
AcDbMText
 10
0.242708779321186
 20
1.570777201004944
 30
0.0
 40
0.0604761899505106
 41
0.0
 71
     1
 72
     1
  1
      DESIGNING THE PCB.
  7
SLDTEXTSTYLE0
 73
     1
 44
1.0
1001
ACAD
1000
MTEXTBEGIN
1070
    73
1070
     1
1070
    44
1040
1.0
1070
    74
1070
     0
1000
MTEXTEND
  0
MTEXT
  5
698
330
1F
100
AcDbEntity
  8
Notes
100
AcDbMText
 10
0.242708779321186
 20
1.490142282045419
 30
0.0
 40
0.0604761899505106
 41
0.0
 71
     1
 72
     1
  1
  2) SURROUND EACH SIDE OF I/O PERIMETER PADS WITH 0.060~0.075 mm (NSMD) SOLDER MASK 
  7
SLDTEXTSTYLE0
 73
     1
 44
1.0
1001
ACAD
1000
MTEXTBEGIN
1070
    73
1070
     1
1070
    44
1040
1.0
1070
    74
1070
     0
1000
MTEXTEND
  0
MTEXT
  5
699
330
1F
100
AcDbEntity
  8
Notes
100
AcDbMText
 10
0.242708779321186
 20
1.409507363085893
 30
0.0
 40
0.0604761899505106
 41
0.0
 71
     1
 72
     1
  1
      OPENING (2.4~3.0mils). OPTIONALLY OK TO USE RECTANGLE (NSMD) MASK OPENING AROUND I/O PADS.
  7
SLDTEXTSTYLE0
 73
     1
 44
1.0
1001
ACAD
1000
MTEXTBEGIN
1070
    73
1070
     1
1070
    44
1040
1.0
1070
    74
1070
     0
1000
MTEXTEND
  0
MTEXT
  5
69A
330
1F
100
AcDbEntity
  8
Notes
100
AcDbMText
 10
0.242708779321186
 20
1.328872444126368
 30
0.0
 40
0.0604761899505106
 41
0.0
 71
     1
 72
     1
  1
  3) ROUNDED PCB LAND PADS REDUCE SOLDER BRIDGING.
  7
SLDTEXTSTYLE0
 73
     1
 44
1.0
1001
ACAD
1000
MTEXTBEGIN
1070
    73
1070
     1
1070
    44
1040
1.0
1070
    74
1070
     0
1000
MTEXTEND
  0
MTEXT
  5
69B
330
1F
100
AcDbEntity
  8
Notes
100
AcDbMText
 10
0.242708779321186
 20
1.248237525166842
 30
0.0
 40
0.0604761899505106
 41
0.0
 71
     1
 72
     1
  1
  4) PCB LANDS SHOULD BE 0.2mm LONGER THEN THE PACKAGE I/O PADS.
  7
SLDTEXTSTYLE0
 73
     1
 44
1.0
1001
ACAD
1000
MTEXTBEGIN
1070
    73
1070
     1
1070
    44
1040
1.0
1070
    74
1070
     0
1000
MTEXTEND
  0
MTEXT
  5
69C
330
1F
100
AcDbEntity
  8
Notes
100
AcDbMText
 10
0.242708779321186
 20
1.167602606207317
 30
0.0
 40
0.0604761899505106
 41
0.0
 71
     1
 72
     1
  1
  5) THE WIDTH OF PERIMETER PCB PADS SHOULD MATCH (1:1) THE SAME WIDTH AS THE PACKAGE PADS.
  7
SLDTEXTSTYLE0
 73
     1
 44
1.0
1001
ACAD
1000
MTEXTBEGIN
1070
    73
1070
     1
1070
    44
1040
1.0
1070
    74
1070
     0
1000
MTEXTEND
  0
MTEXT
  5
69D
330
1F
100
AcDbEntity
  8
Notes
100
AcDbMText
 10
0.242708779321186
 20
1.086967687247791
 30
0.0
 40
0.0604761899505106
 41
0.0
 71
     1
 72
     1
  1
  6) REFER TO INDUSTRY REFERENCES SUCH AS IPC-SM-782 FOR PCB LAND PATTERN DESIGN.
  7
SLDTEXTSTYLE0
 73
     1
 44
1.0
1001
ACAD
1000
MTEXTBEGIN
1070
    73
1070
     1
1070
    44
1040
1.0
1070
    74
1070
     0
1000
MTEXTEND
  0
MTEXT
  5
69E
330
1F
100
AcDbEntity
  8
Notes
100
AcDbMText
 10
0.242708779321186
 20
1.006332768288266
 30
0.0
 40
0.0604761899505106
 41
0.0
 71
     1
 72
     1
  1
  7) THERMAL GROUND PADS MAY BE CHANGED TO SUITE REQUIREMENTS OF THE DESIGNER.
  7
SLDTEXTSTYLE0
 73
     1
 44
1.0
1001
ACAD
1000
MTEXTBEGIN
1070
    73
1070
     1
1070
    44
1040
1.0
1070
    74
1070
     0
1000
MTEXTEND
  0
MTEXT
  5
69F
330
1F
100
AcDbEntity
  8
Notes
100
AcDbMText
 10
0.528423062551945
 20
0.9256978493287405
 30
0.0
 40
0.0604761899505106
 41
0.0
 71
     1
 72
     1
  1
A. MAKE COPPER THERMAL PAD AS LARGE AS POSSIBLE.
  7
SLDTEXTSTYLE0
 73
     1
 44
1.0
1001
ACAD
1000
MTEXTBEGIN
1070
    73
1070
     1
1070
    44
1040
1.0
1070
    74
1070
     0
1000
MTEXTEND
  0
MTEXT
  5
6A0
330
1F
100
AcDbEntity
  8
Notes
100
AcDbMText
 10
0.528423062551945
 20
0.8450629303692151
 30
0.0
 40
0.0604761899505106
 41
0.0
 71
     1
 72
     1
  1
B. DRILL MULTIPLE THERMAL VIAS 0.25~0.33mm DIAMETER USING 0.8~1.2mm PITCH GRID.
  7
SLDTEXTSTYLE0
 73
     1
 44
1.0
1001
ACAD
1000
MTEXTBEGIN
1070
    73
1070
     1
1070
    44
1040
1.0
1070
    74
1070
     0
1000
MTEXTEND
  0
MTEXT
  5
6A1
330
1F
100
AcDbEntity
  8
Notes
100
AcDbMText
 10
0.528423062551945
 20
0.7644280114096894
 30
0.0
 40
0.0604761899505106
 41
0.0
 71
     1
 72
     1
  1
C. PLATE THERMAL VIA BARRELS WITH 1-OUNCE COPPER (18µm).
  7
SLDTEXTSTYLE0
 73
     1
 44
1.0
1001
ACAD
1000
MTEXTBEGIN
1070
    73
1070
     1
1070
    44
1040
1.0
1070
    74
1070
     0
1000
MTEXTEND
  0
MTEXT
  5
6A2
330
1F
100
AcDbEntity
  8
Notes
100
AcDbMText
 10
0.528423062551945
 20
0.6837930924501638
 30
0.0
 40
0.0604761899505106
 41
0.0
 71
     1
 72
     1
  1
D. TENT (COVER) THERMAL VIAS WITH SOLDER MASK 0.1mm LARGER THEN THE VIA DIAMETER.
  7
SLDTEXTSTYLE0
 73
     1
 44
1.0
1001
ACAD
1000
MTEXTBEGIN
1070
    73
1070
     1
1070
    44
1040
1.0
1070
    74
1070
     0
1000
MTEXTEND
  0
MTEXT
  5
6A3
330
1F
100
AcDbEntity
  8
Notes
100
AcDbMText
 10
0.242708779321186
 20
0.6031581734906384
 30
0.0
 40
0.0604761899505106
 41
0.0
 71
     1
 72
     1
  1
   8) STENCIL DESIGN MAY BE CHANGED TO SUITE REQUIREMENTS OF THE DESIGNER.
  7
SLDTEXTSTYLE0
 73
     1
 44
1.0
1001
ACAD
1000
MTEXTBEGIN
1070
    73
1070
     1
1070
    44
1040
1.0
1070
    74
1070
     0
1000
MTEXTEND
  0
MTEXT
  5
6A4
330
1F
100
AcDbEntity
  8
Notes
100
AcDbMText
 10
0.242708779321186
 20
0.5225232545311127
 30
0.0
 40
0.0604761899505106
 41
0.0
 71
     1
 72
     1
  1
             A. LASER CUT STENCIL 0.125mm (5mil) THICK. APERTURE SIZE-TO-LAND RATIO OF 1:1.
  7
SLDTEXTSTYLE0
 73
     1
 44
1.0
1001
ACAD
1000
MTEXTBEGIN
1070
    73
1070
     1
1070
    44
1040
1.0
1070
    74
1070
     0
1000
MTEXTEND
  0
MTEXT
  5
6A5
330
1F
100
AcDbEntity
  8
Notes
100
AcDbMText
 10
0.242708779321186
 20
0.4418883355715872
 30
0.0
 40
0.0604761899505106
 41
0.0
 71
     1
 72
     1
  1
             B. THE SOLDER PASTE OPENING IN THE THERMAL PAD AREA SHOULD BE A MATRIX ARRAY OF
  7
SLDTEXTSTYLE0
 73
     1
 44
1.0
1001
ACAD
1000
MTEXTBEGIN
1070
    73
1070
     1
1070
    44
1040
1.0
1070
    74
1070
     0
1000
MTEXTEND
  0
MTEXT
  5
6A6
330
1F
100
AcDbEntity
  8
Notes
100
AcDbMText
 10
0.242708779321186
 20
0.3612534166120618
 30
0.0
 40
0.0604761899505106
 41
0.0
 71
     1
 72
     1
  1
                 SMALLER APERTURES INSTEAD OF ONE LARGE APERTURE TO CONTROL PASTE AMOUNTS.
  7
SLDTEXTSTYLE0
 73
     1
 44
1.0
1001
ACAD
1000
MTEXTBEGIN
1070
    73
1070
     1
1070
    44
1040
1.0
1070
    74
1070
     0
1000
MTEXTEND
  0
MTEXT
  5
6A7
330
1F
100
AcDbEntity
  8
Notes
100
AcDbMText
 10
0.242708779321186
 20
0.2806184976525361
 30
0.0
 40
0.0604761899505106
 41
0.0
 71
     1
 72
     1
  1
             C. APPLY 50% TO 80% SOLDER PASTE COVERAGE IN THE THERMAL PAD AREA.
  7
SLDTEXTSTYLE0
 73
     1
 44
1.0
1001
ACAD
1000
MTEXTBEGIN
1070
    73
1070
     1
1070
    44
1040
1.0
1070
    74
1070
     0
1000
MTEXTEND
  0
MTEXT
  5
6A8
330
1F
100
AcDbEntity
  8
Notes
100
AcDbMText
 10
5.146372933799986
 20
5.787636064140251
 30
0.0
 40
0.090714284925766
 41
0.0
 71
     1
 72
     1
  1
RECOMMENDED PC BOARD LAYOUT
  7
SLDTEXTSTYLE0
 73
     1
 44
1.0
1001
ACAD
1000
MTEXTBEGIN
1070
    73
1070
     1
1070
    44
1040
1.0
1070
    74
1070
     0
1000
MTEXTEND
  0
MTEXT
  5
6A9
330
1F
100
AcDbEntity
  8
Notes
100
AcDbMText
 10
5.646981324701434
 20
5.666683685700963
 30
0.0
 40
0.090714284925766
 41
0.0
 71
     1
 72
     1
  1
DIMENSIONS IN MM
  7
SLDTEXTSTYLE0
 73
     1
 44
1.0
1001
ACAD
1000
MTEXTBEGIN
1070
    73
1070
     1
1070
    44
1040
1.0
1070
    74
1070
     0
1000
MTEXTEND
  0
ARC
  5
6AA
330
1F
100
AcDbEntity
  8
PCB_Soldermask
100
AcDbCircle
 10
1.766281795267778
 20
4.315696010105858
 30
0.0
 40
0.1849999983919166
100
AcDbArc
 50
270.0000000000002
 51
89.99999999999937
  0
LINE
  5
6AB
330
1F
100
AcDbEntity
  8
PCB_Soldermask
100
AcDbLine
 10
1.231281786171869
 20
4.130695993497258
 30
0.0
 11
1.766281780739154
 21
4.130695993497258
 31
0.0
  0
LINE
  5
6AC
330
1F
100
AcDbEntity
  8
PCB_Soldermask
100
AcDbLine
 10
1.231281786171869
 20
4.500696013675915
 30
0.0
 11
1.231281786171869
 21
4.130695993497258
 31
0.0
  0
LINE
  5
6AD
330
1F
100
AcDbEntity
  8
PCB_Soldermask
100
AcDbLine
 10
1.766281780739154
 20
4.500696013675915
 30
0.0
 11
1.231281786171869
 21
4.500696013675915
 31
0.0
  0
ARC
  5
6AE
330
1F
100
AcDbEntity
  8
PCB_Pads
100
AcDbCircle
 10
1.766281795267778
 20
4.315696010105858
 30
0.0
 40
0.124999998913457
100
AcDbArc
 50
270.0000000000002
 51
89.99999999999944
  0
LINE
  5
6AF
330
1F
100
AcDbEntity
  8
PCB_Pads
100
AcDbLine
 10
1.291281776858643
 20
4.44069602298914
 30
0.0
 11
1.766281780739154
 21
4.44069602298914
 31
0.0
  0
LINE
  5
6B0
330
1F
100
AcDbEntity
  8
PCB_Pads
100
AcDbLine
 10
1.766281780739154
 20
4.190695984184033
 30
0.0
 11
1.291281776858643
 21
4.190695984184033
 31
0.0
  0
LINE
  5
6B1
330
1F
100
AcDbEntity
  8
PCB_Pads
100
AcDbLine
 10
1.291281776858643
 20
4.190695984184033
 30
0.0
 11
1.291281776858643
 21
4.44069602298914
 31
0.0
  0
MTEXT
  5
6B2
330
1F
100
AcDbEntity
  8
Titleblock
 62
     0
100
AcDbMText
 10
5.900560900333691
 20
0.5428796574610862
 30
0.0
 40
0.045357142462883
 41
0.0
 71
     1
 72
     1
  1
SCALE
  7
SLDTEXTSTYLE0
 73
     1
 44
1.0
1001
ACAD
1000
MTEXTBEGIN
1070
    73
1070
     1
1070
    44
1040
1.0
1070
    74
1070
     0
1000
MTEXTEND
  0
MTEXT
  5
6B3
330
1F
100
AcDbEntity
  8
Titleblock
 62
     0
100
AcDbMText
 10
5.900560900333691
 20
0.4774504836400637
 30
0.0
 40
0.0604761899505106
 41
0.0
 71
     1
 72
     1
  1
        35:1 
  7
SLDTEXTSTYLE0
 73
     1
 44
1.0
1001
ACAD
1000
MTEXTBEGIN
1070
    73
1070
     1
1070
    44
1040
1.0
1070
    74
1070
     0
1000
MTEXTEND
  0
ARC
  5
6B4
330
1F
100
AcDbEntity
  8
QFN_Bottom
100
AcDbCircle
 10
1.766281795267778
 20
4.315696010105858
 30
0.0
 40
0.124999998913457
100
AcDbArc
 50
270.0000000000002
 51
89.99999999999944
  0
LINE
  5
6B5
330
1F
100
AcDbEntity
  8
QFN_Bottom
100
AcDbLine
 10
1.291281776858643
 20
4.44069602298914
 30
0.0
 11
1.766281780739154
 21
4.44069602298914
 31
0.0
  0
LINE
  5
6B6
330
1F
100
AcDbEntity
  8
QFN_Bottom
100
AcDbLine
 10
1.766281780739154
 20
4.190695984184033
 30
0.0
 11
1.291281776858643
 21
4.190695984184033
 31
0.0
  0
LINE
  5
6B7
330
1F
100
AcDbEntity
  8
QFN_Bottom
100
AcDbLine
 10
1.291281776858643
 20
4.190695984184033
 30
0.0
 11
1.291281776858643
 21
4.44069602298914
 31
0.0
  0
ARC
  5
6B8
330
1F
100
AcDbEntity
  8
PCB_Soldermask
100
AcDbCircle
 10
1.766281795267778
 20
3.815695990703305
 30
0.0
 40
0.1849999983919166
100
AcDbArc
 50
270.0000000000002
 51
89.99999999999937
  0
LINE
  5
6B9
330
1F
100
AcDbEntity
  8
PCB_Soldermask
100
AcDbLine
 10
1.231281786171869
 20
3.630695974094705
 30
0.0
 11
1.766281780739154
 21
3.630695974094705
 31
0.0
  0
LINE
  5
6BA
330
1F
100
AcDbEntity
  8
PCB_Soldermask
100
AcDbLine
 10
1.231281786171869
 20
4.000695994273361
 30
0.0
 11
1.231281786171869
 21
3.630695974094705
 31
0.0
  0
LINE
  5
6BB
330
1F
100
AcDbEntity
  8
PCB_Soldermask
100
AcDbLine
 10
1.766281780739154
 20
4.000695994273361
 30
0.0
 11
1.231281786171869
 21
4.000695994273361
 31
0.0
  0
ARC
  5
6BC
330
1F
100
AcDbEntity
  8
PCB_Pads
100
AcDbCircle
 10
1.766281795267778
 20
3.815695990703305
 30
0.0
 40
0.124999998913457
100
AcDbArc
 50
270.0000000000002
 51
89.99999999999944
  0
LINE
  5
6BD
330
1F
100
AcDbEntity
  8
PCB_Pads
100
AcDbLine
 10
1.291281776858643
 20
3.940696003586587
 30
0.0
 11
1.766281780739154
 21
3.940696003586587
 31
0.0
  0
LINE
  5
6BE
330
1F
100
AcDbEntity
  8
PCB_Pads
100
AcDbLine
 10
1.766281780739154
 20
3.69069596478148
 30
0.0
 11
1.291281776858643
 21
3.69069596478148
 31
0.0
  0
LINE
  5
6BF
330
1F
100
AcDbEntity
  8
PCB_Pads
100
AcDbLine
 10
1.291281776858643
 20
3.69069596478148
 30
0.0
 11
1.291281776858643
 21
3.940696003586587
 31
0.0
  0
ARC
  5
6C0
330
1F
100
AcDbEntity
  8
QFN_Bottom
100
AcDbCircle
 10
1.766281795267778
 20
3.815695990703305
 30
0.0
 40
0.124999998913457
100
AcDbArc
 50
270.0000000000002
 51
89.99999999999944
  0
LINE
  5
6C1
330
1F
100
AcDbEntity
  8
QFN_Bottom
100
AcDbLine
 10
1.291281776858643
 20
3.940696003586587
 30
0.0
 11
1.766281780739154
 21
3.940696003586587
 31
0.0
  0
LINE
  5
6C2
330
1F
100
AcDbEntity
  8
QFN_Bottom
100
AcDbLine
 10
1.766281780739154
 20
3.69069596478148
 30
0.0
 11
1.291281776858643
 21
3.69069596478148
 31
0.0
  0
LINE
  5
6C3
330
1F
100
AcDbEntity
  8
QFN_Bottom
100
AcDbLine
 10
1.291281776858643
 20
3.69069596478148
 30
0.0
 11
1.291281776858643
 21
3.940696003586587
 31
0.0
  0
ARC
  5
6C4
330
1F
100
AcDbEntity
  8
PCB_Soldermask
100
AcDbCircle
 10
1.766281795267778
 20
3.315696000404582
 30
0.0
 40
0.1849999983919166
100
AcDbArc
 50
270.0000000000002
 51
89.99999999999937
  0
LINE
  5
6C5
330
1F
100
AcDbEntity
  8
PCB_Soldermask
100
AcDbLine
 10
1.231281786171869
 20
3.130695983795982
 30
0.0
 11
1.766281780739154
 21
3.130695983795982
 31
0.0
  0
LINE
  5
6C6
330
1F
100
AcDbEntity
  8
PCB_Soldermask
100
AcDbLine
 10
1.231281786171869
 20
3.500696003974638
 30
0.0
 11
1.231281786171869
 21
3.130695983795982
 31
0.0
  0
LINE
  5
6C7
330
1F
100
AcDbEntity
  8
PCB_Soldermask
100
AcDbLine
 10
1.766281780739154
 20
3.500696003974638
 30
0.0
 11
1.231281786171869
 21
3.500696003974638
 31
0.0
  0
ARC
  5
6C8
330
1F
100
AcDbEntity
  8
PCB_Pads
100
AcDbCircle
 10
1.766281795267778
 20
3.315696000404582
 30
0.0
 40
0.124999998913457
100
AcDbArc
 50
270.0000000000002
 51
89.99999999999944
  0
LINE
  5
6C9
330
1F
100
AcDbEntity
  8
PCB_Pads
100
AcDbLine
 10
1.291281776858643
 20
3.440696013287864
 30
0.0
 11
1.766281780739154
 21
3.440696013287864
 31
0.0
  0
LINE
  5
6CA
330
1F
100
AcDbEntity
  8
PCB_Pads
100
AcDbLine
 10
1.766281780739154
 20
3.190695974482757
 30
0.0
 11
1.291281776858643
 21
3.190695974482757
 31
0.0
  0
LINE
  5
6CB
330
1F
100
AcDbEntity
  8
PCB_Pads
100
AcDbLine
 10
1.291281776858643
 20
3.190695974482757
 30
0.0
 11
1.291281776858643
 21
3.440696013287864
 31
0.0
  0
ARC
  5
6CC
330
1F
100
AcDbEntity
  8
QFN_Bottom
100
AcDbCircle
 10
1.766281795267778
 20
3.315696000404582
 30
0.0
 40
0.124999998913457
100
AcDbArc
 50
270.0000000000002
 51
89.99999999999944
  0
LINE
  5
6CD
330
1F
100
AcDbEntity
  8
QFN_Bottom
100
AcDbLine
 10
1.291281776858643
 20
3.440696013287864
 30
0.0
 11
1.766281780739154
 21
3.440696013287864
 31
0.0
  0
LINE
  5
6CE
330
1F
100
AcDbEntity
  8
QFN_Bottom
100
AcDbLine
 10
1.766281780739154
 20
3.190695974482757
 30
0.0
 11
1.291281776858643
 21
3.190695974482757
 31
0.0
  0
LINE
  5
6CF
330
1F
100
AcDbEntity
  8
QFN_Bottom
100
AcDbLine
 10
1.291281776858643
 20
3.190695974482757
 30
0.0
 11
1.291281776858643
 21
3.440696013287864
 31
0.0
  0
ARC
  5
6D0
330
1F
100
AcDbEntity
  8
PCB_Soldermask
100
AcDbCircle
 10
1.766281795267778
 20
2.815696010105858
 30
0.0
 40
0.1849999983919166
100
AcDbArc
 50
270.0000000000002
 51
89.99999999999937
  0
LINE
  5
6D1
330
1F
100
AcDbEntity
  8
PCB_Soldermask
100
AcDbLine
 10
1.231281786171869
 20
2.630695993497259
 30
0.0
 11
1.766281780739154
 21
2.630695993497259
 31
0.0
  0
LINE
  5
6D2
330
1F
100
AcDbEntity
  8
PCB_Soldermask
100
AcDbLine
 10
1.231281786171869
 20
3.000696013675915
 30
0.0
 11
1.231281786171869
 21
2.630695993497259
 31
0.0
  0
LINE
  5
6D3
330
1F
100
AcDbEntity
  8
PCB_Soldermask
100
AcDbLine
 10
1.766281780739154
 20
3.000696013675915
 30
0.0
 11
1.231281786171869
 21
3.000696013675915
 31
0.0
  0
ARC
  5
6D4
330
1F
100
AcDbEntity
  8
PCB_Pads
100
AcDbCircle
 10
1.766281795267778
 20
2.815696010105858
 30
0.0
 40
0.124999998913457
100
AcDbArc
 50
270.0000000000002
 51
89.99999999999944
  0
LINE
  5
6D5
330
1F
100
AcDbEntity
  8
PCB_Pads
100
AcDbLine
 10
1.291281776858643
 20
2.94069602298914
 30
0.0
 11
1.766281780739154
 21
2.94069602298914
 31
0.0
  0
LINE
  5
6D6
330
1F
100
AcDbEntity
  8
PCB_Pads
100
AcDbLine
 10
1.766281780739154
 20
2.690695984184034
 30
0.0
 11
1.291281776858643
 21
2.690695984184034
 31
0.0
  0
LINE
  5
6D7
330
1F
100
AcDbEntity
  8
PCB_Pads
100
AcDbLine
 10
1.291281776858643
 20
2.690695984184034
 30
0.0
 11
1.291281776858643
 21
2.94069602298914
 31
0.0
  0
ARC
  5
6D8
330
1F
100
AcDbEntity
  8
QFN_Bottom
100
AcDbCircle
 10
1.766281795267778
 20
2.815696010105858
 30
0.0
 40
0.124999998913457
100
AcDbArc
 50
270.0000000000002
 51
89.99999999999944
  0
LINE
  5
6D9
330
1F
100
AcDbEntity
  8
QFN_Bottom
100
AcDbLine
 10
1.291281776858643
 20
2.94069602298914
 30
0.0
 11
1.766281780739154
 21
2.94069602298914
 31
0.0
  0
LINE
  5
6DA
330
1F
100
AcDbEntity
  8
QFN_Bottom
100
AcDbLine
 10
1.766281780739154
 20
2.690695984184034
 30
0.0
 11
1.291281776858643
 21
2.690695984184034
 31
0.0
  0
LINE
  5
6DB
330
1F
100
AcDbEntity
  8
QFN_Bottom
100
AcDbLine
 10
1.291281776858643
 20
2.690695984184034
 30
0.0
 11
1.291281776858643
 21
2.94069602298914
 31
0.0
  0
ARC
  5
6DC
330
1F
100
AcDbEntity
  8
PCB_Soldermask
100
AcDbCircle
 10
2.241281778100393
 20
2.340696014234701
 30
0.0
 40
0.1849999983919166
100
AcDbArc
 50
0.000000000000229
 51
179.9999999999994
  0
LINE
  5
6DD
330
1F
100
AcDbEntity
  8
PCB_Soldermask
100
AcDbLine
 10
2.426281794708992
 20
1.805696005138791
 30
0.0
 11
2.426281794708993
 21
2.340695999706076
 31
0.0
  0
LINE
  5
6DE
330
1F
100
AcDbEntity
  8
PCB_Soldermask
100
AcDbLine
 10
2.056281774530336
 20
1.805696005138791
 30
0.0
 11
2.426281794708992
 21
1.805696005138791
 31
0.0
  0
LINE
  5
6DF
330
1F
100
AcDbEntity
  8
PCB_Soldermask
100
AcDbLine
 10
2.056281774530337
 20
2.340695999706077
 30
0.0
 11
2.056281774530336
 21
1.805696005138791
 31
0.0
  0
ARC
  5
6E0
330
1F
100
AcDbEntity
  8
PCB_Pads
100
AcDbCircle
 10
2.241281778100393
 20
2.340696014234701
 30
0.0
 40
0.124999998913457
100
AcDbArc
 50
0.0000000000001272
 51
179.9999999999994
  0
LINE
  5
6E1
330
1F
100
AcDbEntity
  8
PCB_Pads
100
AcDbLine
 10
2.11628176521711
 20
1.865695995825566
 30
0.0
 11
2.116281765217111
 21
2.340695999706077
 31
0.0
  0
LINE
  5
6E2
330
1F
100
AcDbEntity
  8
PCB_Pads
100
AcDbLine
 10
2.366281804022218
 20
2.340695999706076
 30
0.0
 11
2.366281804022217
 21
1.865695995825566
 31
0.0
  0
LINE
  5
6E3
330
1F
100
AcDbEntity
  8
PCB_Pads
100
AcDbLine
 10
2.366281804022217
 20
1.865695995825566
 30
0.0
 11
2.11628176521711
 21
1.865695995825566
 31
0.0
  0
ARC
  5
6E4
330
1F
100
AcDbEntity
  8
QFN_Bottom
100
AcDbCircle
 10
2.241281778100393
 20
2.340696014234701
 30
0.0
 40
0.124999998913457
100
AcDbArc
 50
0.0000000000001272
 51
179.9999999999994
  0
LINE
  5
6E5
330
1F
100
AcDbEntity
  8
QFN_Bottom
100
AcDbLine
 10
2.11628176521711
 20
1.865695995825566
 30
0.0
 11
2.116281765217111
 21
2.340695999706077
 31
0.0
  0
LINE
  5
6E6
330
1F
100
AcDbEntity
  8
QFN_Bottom
100
AcDbLine
 10
2.366281804022218
 20
2.340695999706076
 30
0.0
 11
2.366281804022217
 21
1.865695995825566
 31
0.0
  0
LINE
  5
6E7
330
1F
100
AcDbEntity
  8
QFN_Bottom
100
AcDbLine
 10
2.366281804022217
 20
1.865695995825566
 30
0.0
 11
2.11628176521711
 21
1.865695995825566
 31
0.0
  0
ARC
  5
6E8
330
1F
100
AcDbEntity
  8
PCB_Soldermask
100
AcDbCircle
 10
2.741281797502946
 20
2.3406960142347
 30
0.0
 40
0.1849999983919166
100
AcDbArc
 50
0.000000000000229
 51
179.9999999999994
  0
LINE
  5
6E9
330
1F
100
AcDbEntity
  8
PCB_Soldermask
100
AcDbLine
 10
2.926281814111545
 20
1.805696005138791
 30
0.0
 11
2.926281814111545
 21
2.340695999706076
 31
0.0
  0
LINE
  5
6EA
330
1F
100
AcDbEntity
  8
PCB_Soldermask
100
AcDbLine
 10
2.556281793932889
 20
1.805696005138791
 30
0.0
 11
2.926281814111545
 21
1.805696005138791
 31
0.0
  0
LINE
  5
6EB
330
1F
100
AcDbEntity
  8
PCB_Soldermask
100
AcDbLine
 10
2.55628179393289
 20
2.340695999706076
 30
0.0
 11
2.556281793932889
 21
1.805696005138791
 31
0.0
  0
ARC
  5
6EC
330
1F
100
AcDbEntity
  8
PCB_Pads
100
AcDbCircle
 10
2.741281797502946
 20
2.3406960142347
 30
0.0
 40
0.124999998913457
100
AcDbArc
 50
0.0000000000001272
 51
179.9999999999994
  0
LINE
  5
6ED
330
1F
100
AcDbEntity
  8
PCB_Pads
100
AcDbLine
 10
2.616281784619664
 20
1.865695995825566
 30
0.0
 11
2.616281784619664
 21
2.340695999706076
 31
0.0
  0
LINE
  5
6EE
330
1F
100
AcDbEntity
  8
PCB_Pads
100
AcDbLine
 10
2.866281823424771
 20
2.340695999706076
 30
0.0
 11
2.866281823424771
 21
1.865695995825566
 31
0.0
  0
LINE
  5
6EF
330
1F
100
AcDbEntity
  8
PCB_Pads
100
AcDbLine
 10
2.866281823424771
 20
1.865695995825566
 30
0.0
 11
2.616281784619664
 21
1.865695995825566
 31
0.0
  0
ARC
  5
6F0
330
1F
100
AcDbEntity
  8
QFN_Bottom
100
AcDbCircle
 10
2.741281797502946
 20
2.3406960142347
 30
0.0
 40
0.124999998913457
100
AcDbArc
 50
0.0000000000001272
 51
179.9999999999994
  0
LINE
  5
6F1
330
1F
100
AcDbEntity
  8
QFN_Bottom
100
AcDbLine
 10
2.616281784619664
 20
1.865695995825566
 30
0.0
 11
2.616281784619664
 21
2.340695999706076
 31
0.0
  0
LINE
  5
6F2
330
1F
100
AcDbEntity
  8
QFN_Bottom
100
AcDbLine
 10
2.866281823424771
 20
2.340695999706076
 30
0.0
 11
2.866281823424771
 21
1.865695995825566
 31
0.0
  0
LINE
  5
6F3
330
1F
100
AcDbEntity
  8
QFN_Bottom
100
AcDbLine
 10
2.866281823424771
 20
1.865695995825566
 30
0.0
 11
2.616281784619664
 21
1.865695995825566
 31
0.0
  0
ARC
  5
6F4
330
1F
100
AcDbEntity
  8
PCB_Soldermask
100
AcDbCircle
 10
3.241281787801669
 20
2.3406960142347
 30
0.0
 40
0.1849999983919166
100
AcDbArc
 50
0.000000000000229
 51
179.9999999999994
  0
LINE
  5
6F5
330
1F
100
AcDbEntity
  8
PCB_Soldermask
100
AcDbLine
 10
3.426281804410268
 20
1.805696005138791
 30
0.0
 11
3.426281804410268
 21
2.340695999706076
 31
0.0
  0
LINE
  5
6F6
330
1F
100
AcDbEntity
  8
PCB_Soldermask
100
AcDbLine
 10
3.056281784231612
 20
1.805696005138791
 30
0.0
 11
3.426281804410268
 21
1.805696005138791
 31
0.0
  0
LINE
  5
6F7
330
1F
100
AcDbEntity
  8
PCB_Soldermask
100
AcDbLine
 10
3.056281784231612
 20
2.340695999706076
 30
0.0
 11
3.056281784231612
 21
1.805696005138791
 31
0.0
  0
ARC
  5
6F8
330
1F
100
AcDbEntity
  8
PCB_Pads
100
AcDbCircle
 10
3.241281787801669
 20
2.3406960142347
 30
0.0
 40
0.124999998913457
100
AcDbArc
 50
0.0000000000001272
 51
179.9999999999994
  0
LINE
  5
6F9
330
1F
100
AcDbEntity
  8
PCB_Pads
100
AcDbLine
 10
3.116281774918387
 20
1.865695995825565
 30
0.0
 11
3.116281774918387
 21
2.340695999706076
 31
0.0
  0
LINE
  5
6FA
330
1F
100
AcDbEntity
  8
PCB_Pads
100
AcDbLine
 10
3.366281813723494
 20
2.340695999706076
 30
0.0
 11
3.366281813723494
 21
1.865695995825565
 31
0.0
  0
LINE
  5
6FB
330
1F
100
AcDbEntity
  8
PCB_Pads
100
AcDbLine
 10
3.366281813723494
 20
1.865695995825565
 30
0.0
 11
3.116281774918387
 21
1.865695995825565
 31
0.0
  0
ARC
  5
6FC
330
1F
100
AcDbEntity
  8
QFN_Bottom
100
AcDbCircle
 10
3.241281787801669
 20
2.3406960142347
 30
0.0
 40
0.124999998913457
100
AcDbArc
 50
0.0000000000001272
 51
179.9999999999994
  0
LINE
  5
6FD
330
1F
100
AcDbEntity
  8
QFN_Bottom
100
AcDbLine
 10
3.116281774918387
 20
1.865695995825565
 30
0.0
 11
3.116281774918387
 21
2.340695999706076
 31
0.0
  0
LINE
  5
6FE
330
1F
100
AcDbEntity
  8
QFN_Bottom
100
AcDbLine
 10
3.366281813723494
 20
2.340695999706076
 30
0.0
 11
3.366281813723494
 21
1.865695995825565
 31
0.0
  0
LINE
  5
6FF
330
1F
100
AcDbEntity
  8
QFN_Bottom
100
AcDbLine
 10
3.366281813723494
 20
1.865695995825565
 30
0.0
 11
3.116281774918387
 21
1.865695995825565
 31
0.0
  0
ARC
  5
700
330
1F
100
AcDbEntity
  8
PCB_Soldermask
100
AcDbCircle
 10
3.741281778100392
 20
2.3406960142347
 30
0.0
 40
0.1849999983919166
100
AcDbArc
 50
0.000000000000229
 51
179.9999999999994
  0
LINE
  5
701
330
1F
100
AcDbEntity
  8
PCB_Soldermask
100
AcDbLine
 10
3.926281794708992
 20
1.805696005138791
 30
0.0
 11
3.926281794708992
 21
2.340695999706076
 31
0.0
  0
LINE
  5
702
330
1F
100
AcDbEntity
  8
PCB_Soldermask
100
AcDbLine
 10
3.556281774530336
 20
1.805696005138791
 30
0.0
 11
3.926281794708992
 21
1.805696005138791
 31
0.0
  0
LINE
  5
703
330
1F
100
AcDbEntity
  8
PCB_Soldermask
100
AcDbLine
 10
3.556281774530336
 20
2.340695999706076
 30
0.0
 11
3.556281774530336
 21
1.805696005138791
 31
0.0
  0
ARC
  5
704
330
1F
100
AcDbEntity
  8
PCB_Pads
100
AcDbCircle
 10
3.741281778100392
 20
2.3406960142347
 30
0.0
 40
0.124999998913457
100
AcDbArc
 50
0.0000000000001272
 51
179.9999999999994
  0
LINE
  5
705
330
1F
100
AcDbEntity
  8
PCB_Pads
100
AcDbLine
 10
3.61628176521711
 20
1.865695995825565
 30
0.0
 11
3.61628176521711
 21
2.340695999706076
 31
0.0
  0
LINE
  5
706
330
1F
100
AcDbEntity
  8
PCB_Pads
100
AcDbLine
 10
3.866281804022217
 20
2.340695999706076
 30
0.0
 11
3.866281804022217
 21
1.865695995825565
 31
0.0
  0
LINE
  5
707
330
1F
100
AcDbEntity
  8
PCB_Pads
100
AcDbLine
 10
3.866281804022217
 20
1.865695995825565
 30
0.0
 11
3.61628176521711
 21
1.865695995825565
 31
0.0
  0
ARC
  5
708
330
1F
100
AcDbEntity
  8
QFN_Bottom
100
AcDbCircle
 10
3.741281778100392
 20
2.3406960142347
 30
0.0
 40
0.124999998913457
100
AcDbArc
 50
0.0000000000001272
 51
179.9999999999994
  0
LINE
  5
709
330
1F
100
AcDbEntity
  8
QFN_Bottom
100
AcDbLine
 10
3.61628176521711
 20
1.865695995825565
 30
0.0
 11
3.61628176521711
 21
2.340695999706076
 31
0.0
  0
LINE
  5
70A
330
1F
100
AcDbEntity
  8
QFN_Bottom
100
AcDbLine
 10
3.866281804022217
 20
2.340695999706076
 30
0.0
 11
3.866281804022217
 21
1.865695995825565
 31
0.0
  0
LINE
  5
70B
330
1F
100
AcDbEntity
  8
QFN_Bottom
100
AcDbLine
 10
3.866281804022217
 20
1.865695995825565
 30
0.0
 11
3.61628176521711
 21
1.865695995825565
 31
0.0
  0
ARC
  5
70C
330
1F
100
AcDbEntity
  8
PCB_Soldermask
100
AcDbCircle
 10
4.21628177397155
 20
2.815695997067314
 30
0.0
 40
0.1849999983919166
100
AcDbArc
 50
90.00000000000019
 51
269.9999999999993
  0
LINE
  5
70D
330
1F
100
AcDbEntity
  8
PCB_Soldermask
100
AcDbLine
 10
4.75128178306746
 20
3.000696013675914
 30
0.0
 11
4.216281788500174
 21
3.000696013675914
 31
0.0
  0
LINE
  5
70E
330
1F
100
AcDbEntity
  8
PCB_Soldermask
100
AcDbLine
 10
4.75128178306746
 20
2.630695993497258
 30
0.0
 11
4.75128178306746
 21
3.000696013675914
 31
0.0
  0
LINE
  5
70F
330
1F
100
AcDbEntity
  8
PCB_Soldermask
100
AcDbLine
 10
4.216281788500174
 20
2.630695993497258
 30
0.0
 11
4.75128178306746
 21
2.630695993497258
 31
0.0
  0
ARC
  5
710
330
1F
100
AcDbEntity
  8
PCB_Pads
100
AcDbCircle
 10
4.21628177397155
 20
2.815695997067314
 30
0.0
 40
0.124999998913457
100
AcDbArc
 50
90.0000000000001
 51
269.9999999999994
  0
LINE
  5
711
330
1F
100
AcDbEntity
  8
PCB_Pads
100
AcDbLine
 10
4.691281792380685
 20
2.690695984184032
 30
0.0
 11
4.216281788500174
 21
2.690695984184032
 31
0.0
  0
LINE
  5
712
330
1F
100
AcDbEntity
  8
PCB_Pads
100
AcDbLine
 10
4.216281788500174
 20
2.940696022989139
 30
0.0
 11
4.691281792380685
 21
2.940696022989139
 31
0.0
  0
LINE
  5
713
330
1F
100
AcDbEntity
  8
PCB_Pads
100
AcDbLine
 10
4.691281792380685
 20
2.940696022989139
 30
0.0
 11
4.691281792380685
 21
2.690695984184032
 31
0.0
  0
ARC
  5
714
330
1F
100
AcDbEntity
  8
QFN_Bottom
100
AcDbCircle
 10
4.21628177397155
 20
2.815695997067314
 30
0.0
 40
0.124999998913457
100
AcDbArc
 50
90.0000000000001
 51
269.9999999999994
  0
LINE
  5
715
330
1F
100
AcDbEntity
  8
QFN_Bottom
100
AcDbLine
 10
4.691281792380685
 20
2.690695984184032
 30
0.0
 11
4.216281788500174
 21
2.690695984184032
 31
0.0
  0
LINE
  5
716
330
1F
100
AcDbEntity
  8
QFN_Bottom
100
AcDbLine
 10
4.216281788500174
 20
2.940696022989139
 30
0.0
 11
4.691281792380685
 21
2.940696022989139
 31
0.0
  0
LINE
  5
717
330
1F
100
AcDbEntity
  8
QFN_Bottom
100
AcDbLine
 10
4.691281792380685
 20
2.940696022989139
 30
0.0
 11
4.691281792380685
 21
2.690695984184032
 31
0.0
  0
ARC
  5
718
330
1F
100
AcDbEntity
  8
PCB_Soldermask
100
AcDbCircle
 10
4.21628177397155
 20
3.315696016469868
 30
0.0
 40
0.1849999983919166
100
AcDbArc
 50
90.00000000000019
 51
269.9999999999993
  0
LINE
  5
719
330
1F
100
AcDbEntity
  8
PCB_Soldermask
100
AcDbLine
 10
4.75128178306746
 20
3.500696033078467
 30
0.0
 11
4.216281788500175
 21
3.500696033078467
 31
0.0
  0
LINE
  5
71A
330
1F
100
AcDbEntity
  8
PCB_Soldermask
100
AcDbLine
 10
4.75128178306746
 20
3.130696012899811
 30
0.0
 11
4.75128178306746
 21
3.500696033078467
 31
0.0
  0
LINE
  5
71B
330
1F
100
AcDbEntity
  8
PCB_Soldermask
100
AcDbLine
 10
4.216281788500174
 20
3.130696012899811
 30
0.0
 11
4.75128178306746
 21
3.130696012899811
 31
0.0
  0
ARC
  5
71C
330
1F
100
AcDbEntity
  8
PCB_Pads
100
AcDbCircle
 10
4.21628177397155
 20
3.315696016469868
 30
0.0
 40
0.124999998913457
100
AcDbArc
 50
90.0000000000001
 51
269.9999999999994
  0
LINE
  5
71D
330
1F
100
AcDbEntity
  8
PCB_Pads
100
AcDbLine
 10
4.691281792380685
 20
3.190696003586586
 30
0.0
 11
4.216281788500174
 21
3.190696003586586
 31
0.0
  0
LINE
  5
71E
330
1F
100
AcDbEntity
  8
PCB_Pads
100
AcDbLine
 10
4.216281788500175
 20
3.440696042391692
 30
0.0
 11
4.691281792380685
 21
3.440696042391692
 31
0.0
  0
LINE
  5
71F
330
1F
100
AcDbEntity
  8
PCB_Pads
100
AcDbLine
 10
4.691281792380685
 20
3.440696042391692
 30
0.0
 11
4.691281792380685
 21
3.190696003586586
 31
0.0
  0
ARC
  5
720
330
1F
100
AcDbEntity
  8
QFN_Bottom
100
AcDbCircle
 10
4.21628177397155
 20
3.315696016469868
 30
0.0
 40
0.124999998913457
100
AcDbArc
 50
90.0000000000001
 51
269.9999999999994
  0
LINE
  5
721
330
1F
100
AcDbEntity
  8
QFN_Bottom
100
AcDbLine
 10
4.691281792380685
 20
3.190696003586586
 30
0.0
 11
4.216281788500174
 21
3.190696003586586
 31
0.0
  0
LINE
  5
722
330
1F
100
AcDbEntity
  8
QFN_Bottom
100
AcDbLine
 10
4.216281788500175
 20
3.440696042391692
 30
0.0
 11
4.691281792380685
 21
3.440696042391692
 31
0.0
  0
LINE
  5
723
330
1F
100
AcDbEntity
  8
QFN_Bottom
100
AcDbLine
 10
4.691281792380685
 20
3.440696042391692
 30
0.0
 11
4.691281792380685
 21
3.190696003586586
 31
0.0
  0
ARC
  5
724
330
1F
100
AcDbEntity
  8
PCB_Soldermask
100
AcDbCircle
 10
4.216281773971551
 20
3.81569600676859
 30
0.0
 40
0.1849999983919166
100
AcDbArc
 50
90.00000000000019
 51
269.9999999999993
  0
LINE
  5
725
330
1F
100
AcDbEntity
  8
PCB_Soldermask
100
AcDbLine
 10
4.75128178306746
 20
4.00069602337719
 30
0.0
 11
4.216281788500175
 21
4.00069602337719
 31
0.0
  0
LINE
  5
726
330
1F
100
AcDbEntity
  8
PCB_Soldermask
100
AcDbLine
 10
4.75128178306746
 20
3.630696003198534
 30
0.0
 11
4.75128178306746
 21
4.00069602337719
 31
0.0
  0
LINE
  5
727
330
1F
100
AcDbEntity
  8
PCB_Soldermask
100
AcDbLine
 10
4.216281788500175
 20
3.630696003198534
 30
0.0
 11
4.75128178306746
 21
3.630696003198534
 31
0.0
  0
ARC
  5
728
330
1F
100
AcDbEntity
  8
PCB_Pads
100
AcDbCircle
 10
4.216281773971551
 20
3.81569600676859
 30
0.0
 40
0.124999998913457
100
AcDbArc
 50
90.0000000000001
 51
269.9999999999994
  0
LINE
  5
729
330
1F
100
AcDbEntity
  8
PCB_Pads
100
AcDbLine
 10
4.691281792380685
 20
3.690695993885309
 30
0.0
 11
4.216281788500175
 21
3.690695993885309
 31
0.0
  0
LINE
  5
72A
330
1F
100
AcDbEntity
  8
PCB_Pads
100
AcDbLine
 10
4.216281788500175
 20
3.940696032690415
 30
0.0
 11
4.691281792380686
 21
3.940696032690415
 31
0.0
  0
LINE
  5
72B
330
1F
100
AcDbEntity
  8
PCB_Pads
100
AcDbLine
 10
4.691281792380686
 20
3.940696032690415
 30
0.0
 11
4.691281792380685
 21
3.690695993885309
 31
0.0
  0
ARC
  5
72C
330
1F
100
AcDbEntity
  8
QFN_Bottom
100
AcDbCircle
 10
4.216281773971551
 20
3.81569600676859
 30
0.0
 40
0.124999998913457
100
AcDbArc
 50
90.0000000000001
 51
269.9999999999994
  0
LINE
  5
72D
330
1F
100
AcDbEntity
  8
QFN_Bottom
100
AcDbLine
 10
4.691281792380685
 20
3.690695993885309
 30
0.0
 11
4.216281788500175
 21
3.690695993885309
 31
0.0
  0
LINE
  5
72E
330
1F
100
AcDbEntity
  8
QFN_Bottom
100
AcDbLine
 10
4.216281788500175
 20
3.940696032690415
 30
0.0
 11
4.691281792380686
 21
3.940696032690415
 31
0.0
  0
LINE
  5
72F
330
1F
100
AcDbEntity
  8
QFN_Bottom
100
AcDbLine
 10
4.691281792380686
 20
3.940696032690415
 30
0.0
 11
4.691281792380685
 21
3.690695993885309
 31
0.0
  0
ARC
  5
730
330
1F
100
AcDbEntity
  8
PCB_Soldermask
100
AcDbCircle
 10
4.216281773971551
 20
4.315695997067313
 30
0.0
 40
0.1849999983919166
100
AcDbArc
 50
90.00000000000019
 51
269.9999999999993
  0
LINE
  5
731
330
1F
100
AcDbEntity
  8
PCB_Soldermask
100
AcDbLine
 10
4.75128178306746
 20
4.500696013675913
 30
0.0
 11
4.216281788500175
 21
4.500696013675913
 31
0.0
  0
LINE
  5
732
330
1F
100
AcDbEntity
  8
PCB_Soldermask
100
AcDbLine
 10
4.75128178306746
 20
4.130695993497257
 30
0.0
 11
4.75128178306746
 21
4.500696013675913
 31
0.0
  0
LINE
  5
733
330
1F
100
AcDbEntity
  8
PCB_Soldermask
100
AcDbLine
 10
4.216281788500175
 20
4.130695993497257
 30
0.0
 11
4.75128178306746
 21
4.130695993497257
 31
0.0
  0
ARC
  5
734
330
1F
100
AcDbEntity
  8
PCB_Pads
100
AcDbCircle
 10
4.216281773971551
 20
4.315695997067313
 30
0.0
 40
0.124999998913457
100
AcDbArc
 50
90.0000000000001
 51
269.9999999999994
  0
LINE
  5
735
330
1F
100
AcDbEntity
  8
PCB_Pads
100
AcDbLine
 10
4.691281792380686
 20
4.190695984184031
 30
0.0
 11
4.216281788500175
 21
4.190695984184031
 31
0.0
  0
LINE
  5
736
330
1F
100
AcDbEntity
  8
PCB_Pads
100
AcDbLine
 10
4.216281788500175
 20
4.440696022989138
 30
0.0
 11
4.691281792380686
 21
4.440696022989138
 31
0.0
  0
LINE
  5
737
330
1F
100
AcDbEntity
  8
PCB_Pads
100
AcDbLine
 10
4.691281792380686
 20
4.440696022989138
 30
0.0
 11
4.691281792380686
 21
4.190695984184031
 31
0.0
  0
ARC
  5
738
330
1F
100
AcDbEntity
  8
QFN_Bottom
100
AcDbCircle
 10
4.216281773971551
 20
4.315695997067313
 30
0.0
 40
0.124999998913457
100
AcDbArc
 50
90.0000000000001
 51
269.9999999999994
  0
LINE
  5
739
330
1F
100
AcDbEntity
  8
QFN_Bottom
100
AcDbLine
 10
4.691281792380686
 20
4.190695984184031
 30
0.0
 11
4.216281788500175
 21
4.190695984184031
 31
0.0
  0
LINE
  5
73A
330
1F
100
AcDbEntity
  8
QFN_Bottom
100
AcDbLine
 10
4.216281788500175
 20
4.440696022989138
 30
0.0
 11
4.691281792380686
 21
4.440696022989138
 31
0.0
  0
LINE
  5
73B
330
1F
100
AcDbEntity
  8
QFN_Bottom
100
AcDbLine
 10
4.691281792380686
 20
4.440696022989138
 30
0.0
 11
4.691281792380686
 21
4.190695984184031
 31
0.0
  0
ARC
  5
73C
330
1F
100
AcDbEntity
  8
PCB_Soldermask
100
AcDbCircle
 10
3.741281791138937
 20
4.790695992938472
 30
0.0
 40
0.1849999983919166
100
AcDbArc
 50
180.0000000000002
 51
359.9999999999992
  0
LINE
  5
73D
330
1F
100
AcDbEntity
  8
PCB_Soldermask
100
AcDbLine
 10
3.556281774530339
 20
5.325696002034381
 30
0.0
 11
3.556281774530338
 21
4.790696007467096
 31
0.0
  0
LINE
  5
73E
330
1F
100
AcDbEntity
  8
PCB_Soldermask
100
AcDbLine
 10
3.926281794708995
 20
5.325696002034381
 30
0.0
 11
3.556281774530339
 21
5.325696002034381
 31
0.0
  0
LINE
  5
73F
330
1F
100
AcDbEntity
  8
PCB_Soldermask
100
AcDbLine
 10
3.926281794708994
 20
4.790696007467095
 30
0.0
 11
3.926281794708995
 21
5.325696002034381
 31
0.0
  0
ARC
  5
740
330
1F
100
AcDbEntity
  8
PCB_Pads
100
AcDbCircle
 10
3.741281791138937
 20
4.790695992938472
 30
0.0
 40
0.124999998913457
100
AcDbArc
 50
180.0000000000001
 51
359.9999999999994
  0
LINE
  5
741
330
1F
100
AcDbEntity
  8
PCB_Pads
100
AcDbLine
 10
3.866281804022219
 20
5.265696011347607
 30
0.0
 11
3.866281804022219
 21
4.790696007467095
 31
0.0
  0
LINE
  5
742
330
1F
100
AcDbEntity
  8
PCB_Pads
100
AcDbLine
 10
3.616281765217113
 20
4.790696007467096
 30
0.0
 11
3.616281765217113
 21
5.265696011347607
 31
0.0
  0
LINE
  5
743
330
1F
100
AcDbEntity
  8
PCB_Pads
100
AcDbLine
 10
3.616281765217113
 20
5.265696011347607
 30
0.0
 11
3.866281804022219
 21
5.265696011347607
 31
0.0
  0
ARC
  5
744
330
1F
100
AcDbEntity
  8
QFN_Bottom
100
AcDbCircle
 10
3.741281791138937
 20
4.790695992938472
 30
0.0
 40
0.124999998913457
100
AcDbArc
 50
180.0000000000001
 51
359.9999999999994
  0
LINE
  5
745
330
1F
100
AcDbEntity
  8
QFN_Bottom
100
AcDbLine
 10
3.866281804022219
 20
5.265696011347607
 30
0.0
 11
3.866281804022219
 21
4.790696007467095
 31
0.0
  0
LINE
  5
746
330
1F
100
AcDbEntity
  8
QFN_Bottom
100
AcDbLine
 10
3.616281765217113
 20
4.790696007467096
 30
0.0
 11
3.616281765217113
 21
5.265696011347607
 31
0.0
  0
LINE
  5
747
330
1F
100
AcDbEntity
  8
QFN_Bottom
100
AcDbLine
 10
3.616281765217113
 20
5.265696011347607
 30
0.0
 11
3.866281804022219
 21
5.265696011347607
 31
0.0
  0
ARC
  5
748
330
1F
100
AcDbEntity
  8
PCB_Soldermask
100
AcDbCircle
 10
3.241281771736384
 20
4.790695992938472
 30
0.0
 40
0.1849999983919166
100
AcDbArc
 50
180.0000000000002
 51
359.9999999999992
  0
LINE
  5
749
330
1F
100
AcDbEntity
  8
PCB_Soldermask
100
AcDbLine
 10
3.056281755127785
 20
5.325696002034382
 30
0.0
 11
3.056281755127784
 21
4.790696007467096
 31
0.0
  0
LINE
  5
74A
330
1F
100
AcDbEntity
  8
PCB_Soldermask
100
AcDbLine
 10
3.426281775306442
 20
5.325696002034382
 30
0.0
 11
3.056281755127785
 21
5.325696002034382
 31
0.0
  0
LINE
  5
74B
330
1F
100
AcDbEntity
  8
PCB_Soldermask
100
AcDbLine
 10
3.426281775306441
 20
4.790696007467096
 30
0.0
 11
3.426281775306442
 21
5.325696002034382
 31
0.0
  0
ARC
  5
74C
330
1F
100
AcDbEntity
  8
PCB_Pads
100
AcDbCircle
 10
3.241281771736384
 20
4.790695992938472
 30
0.0
 40
0.124999998913457
100
AcDbArc
 50
180.0000000000001
 51
359.9999999999994
  0
LINE
  5
74D
330
1F
100
AcDbEntity
  8
PCB_Pads
100
AcDbLine
 10
3.366281784619666
 20
5.265696011347607
 30
0.0
 11
3.366281784619666
 21
4.790696007467096
 31
0.0
  0
LINE
  5
74E
330
1F
100
AcDbEntity
  8
PCB_Pads
100
AcDbLine
 10
3.116281745814559
 20
4.790696007467096
 30
0.0
 11
3.11628174581456
 21
5.265696011347607
 31
0.0
  0
LINE
  5
74F
330
1F
100
AcDbEntity
  8
PCB_Pads
100
AcDbLine
 10
3.11628174581456
 20
5.265696011347607
 30
0.0
 11
3.366281784619666
 21
5.265696011347607
 31
0.0
  0
ARC
  5
750
330
1F
100
AcDbEntity
  8
QFN_Bottom
100
AcDbCircle
 10
3.241281771736384
 20
4.790695992938472
 30
0.0
 40
0.124999998913457
100
AcDbArc
 50
180.0000000000001
 51
359.9999999999994
  0
LINE
  5
751
330
1F
100
AcDbEntity
  8
QFN_Bottom
100
AcDbLine
 10
3.366281784619666
 20
5.265696011347607
 30
0.0
 11
3.366281784619666
 21
4.790696007467096
 31
0.0
  0
LINE
  5
752
330
1F
100
AcDbEntity
  8
QFN_Bottom
100
AcDbLine
 10
3.116281745814559
 20
4.790696007467096
 30
0.0
 11
3.11628174581456
 21
5.265696011347607
 31
0.0
  0
LINE
  5
753
330
1F
100
AcDbEntity
  8
QFN_Bottom
100
AcDbLine
 10
3.11628174581456
 20
5.265696011347607
 30
0.0
 11
3.366281784619666
 21
5.265696011347607
 31
0.0
  0
ARC
  5
754
330
1F
100
AcDbEntity
  8
PCB_Soldermask
100
AcDbCircle
 10
2.741281781437661
 20
4.790695992938473
 30
0.0
 40
0.1849999983919166
100
AcDbArc
 50
180.0000000000002
 51
359.9999999999992
  0
LINE
  5
755
330
1F
100
AcDbEntity
  8
PCB_Soldermask
100
AcDbLine
 10
2.556281764829062
 20
5.325696002034382
 30
0.0
 11
2.556281764829062
 21
4.790696007467097
 31
0.0
  0
LINE
  5
756
330
1F
100
AcDbEntity
  8
PCB_Soldermask
100
AcDbLine
 10
2.926281785007718
 20
5.325696002034382
 30
0.0
 11
2.556281764829062
 21
5.325696002034382
 31
0.0
  0
LINE
  5
757
330
1F
100
AcDbEntity
  8
PCB_Soldermask
100
AcDbLine
 10
2.926281785007718
 20
4.790696007467097
 30
0.0
 11
2.926281785007718
 21
5.325696002034382
 31
0.0
  0
ARC
  5
758
330
1F
100
AcDbEntity
  8
PCB_Pads
100
AcDbCircle
 10
2.741281781437661
 20
4.790695992938473
 30
0.0
 40
0.124999998913457
100
AcDbArc
 50
180.0000000000001
 51
359.9999999999994
  0
LINE
  5
759
330
1F
100
AcDbEntity
  8
PCB_Pads
100
AcDbLine
 10
2.866281794320943
 20
5.265696011347607
 30
0.0
 11
2.866281794320943
 21
4.790696007467097
 31
0.0
  0
LINE
  5
75A
330
1F
100
AcDbEntity
  8
PCB_Pads
100
AcDbLine
 10
2.616281755515836
 20
4.790696007467097
 30
0.0
 11
2.616281755515837
 21
5.265696011347608
 31
0.0
  0
LINE
  5
75B
330
1F
100
AcDbEntity
  8
PCB_Pads
100
AcDbLine
 10
2.616281755515837
 20
5.265696011347608
 30
0.0
 11
2.866281794320943
 21
5.265696011347607
 31
0.0
  0
ARC
  5
75C
330
1F
100
AcDbEntity
  8
QFN_Bottom
100
AcDbCircle
 10
2.741281781437661
 20
4.790695992938473
 30
0.0
 40
0.124999998913457
100
AcDbArc
 50
180.0000000000001
 51
359.9999999999994
  0
LINE
  5
75D
330
1F
100
AcDbEntity
  8
QFN_Bottom
100
AcDbLine
 10
2.866281794320943
 20
5.265696011347607
 30
0.0
 11
2.866281794320943
 21
4.790696007467097
 31
0.0
  0
LINE
  5
75E
330
1F
100
AcDbEntity
  8
QFN_Bottom
100
AcDbLine
 10
2.616281755515836
 20
4.790696007467097
 30
0.0
 11
2.616281755515837
 21
5.265696011347608
 31
0.0
  0
LINE
  5
75F
330
1F
100
AcDbEntity
  8
QFN_Bottom
100
AcDbLine
 10
2.616281755515837
 20
5.265696011347608
 30
0.0
 11
2.866281794320943
 21
5.265696011347607
 31
0.0
  0
ARC
  5
760
330
1F
100
AcDbEntity
  8
PCB_Soldermask
100
AcDbCircle
 10
2.241281791138938
 20
4.790695992938474
 30
0.0
 40
0.1849999983919166
100
AcDbArc
 50
180.0000000000002
 51
359.9999999999992
  0
LINE
  5
761
330
1F
100
AcDbEntity
  8
PCB_Soldermask
100
AcDbLine
 10
2.056281774530339
 20
5.325696002034383
 30
0.0
 11
2.056281774530338
 21
4.790696007467097
 31
0.0
  0
LINE
  5
762
330
1F
100
AcDbEntity
  8
PCB_Soldermask
100
AcDbLine
 10
2.426281794708995
 20
5.325696002034383
 30
0.0
 11
2.056281774530339
 21
5.325696002034383
 31
0.0
  0
LINE
  5
763
330
1F
100
AcDbEntity
  8
PCB_Soldermask
100
AcDbLine
 10
2.426281794708994
 20
4.790696007467097
 30
0.0
 11
2.426281794708995
 21
5.325696002034383
 31
0.0
  0
ARC
  5
764
330
1F
100
AcDbEntity
  8
PCB_Pads
100
AcDbCircle
 10
2.241281791138938
 20
4.790695992938474
 30
0.0
 40
0.124999998913457
100
AcDbArc
 50
180.0000000000001
 51
359.9999999999994
  0
LINE
  5
765
330
1F
100
AcDbEntity
  8
PCB_Pads
100
AcDbLine
 10
2.36628180402222
 20
5.265696011347608
 30
0.0
 11
2.36628180402222
 21
4.790696007467097
 31
0.0
  0
LINE
  5
766
330
1F
100
AcDbEntity
  8
PCB_Pads
100
AcDbLine
 10
2.116281765217113
 20
4.790696007467097
 30
0.0
 11
2.116281765217113
 21
5.265696011347609
 31
0.0
  0
LINE
  5
767
330
1F
100
AcDbEntity
  8
PCB_Pads
100
AcDbLine
 10
2.116281765217113
 20
5.265696011347609
 30
0.0
 11
2.36628180402222
 21
5.265696011347608
 31
0.0
  0
ARC
  5
768
330
1F
100
AcDbEntity
  8
QFN_Bottom
100
AcDbCircle
 10
2.241281791138938
 20
4.790695992938474
 30
0.0
 40
0.124999998913457
100
AcDbArc
 50
180.0000000000001
 51
359.9999999999994
  0
LINE
  5
769
330
1F
100
AcDbEntity
  8
QFN_Bottom
100
AcDbLine
 10
2.36628180402222
 20
5.265696011347608
 30
0.0
 11
2.36628180402222
 21
4.790696007467097
 31
0.0
  0
LINE
  5
76A
330
1F
100
AcDbEntity
  8
QFN_Bottom
100
AcDbLine
 10
2.116281765217113
 20
4.790696007467097
 30
0.0
 11
2.116281765217113
 21
5.265696011347609
 31
0.0
  0
LINE
  5
76B
330
1F
100
AcDbEntity
  8
QFN_Bottom
100
AcDbLine
 10
2.116281765217113
 20
5.265696011347609
 30
0.0
 11
2.36628180402222
 21
5.265696011347608
 31
0.0
  0
ENDSEC
  0
SECTION
  2
OBJECTS
  0
DICTIONARY
  5
C
330
0
100
AcDbDictionary
281
     1
  3
ACAD_2007HEADERVARS_RT
350
7DD
  3
ACAD_COLOR
350
325
  3
ACAD_GROUP
350
D
  3
ACAD_IMAGE_DICT
350
49
  3
ACAD_IMAGE_VARS
350
32B
  3
ACAD_LAYOUT
350
1A
  3
ACAD_MATERIAL
350
309
  3
ACAD_MLEADERSTYLE
350
307
  3
ACAD_MLINESTYLE
350
17
  3
ACAD_PLOTSETTINGS
350
19
  3
ACAD_PLOTSTYLENAME
350
E
  3
ACAD_SCALELIST
350
62
  3
ACAD_TABLESTYLE
350
306
  3
ACAD_VISUALSTYLE
350
2A
  3
ACDB_RECOMPOSE_DATA
350
7DB
  3
AcDbVariableDictionary
350
304
  3
DWGPROPS
350
7DC
  0
DICTIONARY
  5
787
330
2
100
AcDbDictionary
280
     1
281
     1
  3
ACAD_LAYERSTATES
360
788
  0
DICTIONARY
  5
76C
330
10
100
AcDbDictionary
280
     1
281
     1
  3
ADSK_XREC_LAYER_RECONCILED
360
76D
  0
DICTIONARY
  5
76E
330
44
100
AcDbDictionary
280
     1
281
     1
  3
ADSK_XREC_LAYER_RECONCILED
360
76F
  0
DICTIONARY
  5
770
330
45
100
AcDbDictionary
280
     1
281
     1
  3
ADSK_XREC_LAYER_RECONCILED
360
771
  0
DICTIONARY
  5
772
330
48
100
AcDbDictionary
280
     1
281
     1
  3
ADSK_XREC_LAYER_RECONCILED
360
773
  0
DICTIONARY
  5
774
330
532
100
AcDbDictionary
280
     1
281
     1
  3
ADSK_XREC_LAYER_RECONCILED
360
775
  0
DICTIONARY
  5
776
330
533
100
AcDbDictionary
280
     1
281
     1
  3
ADSK_XREC_LAYER_RECONCILED
360
777
  0
DICTIONARY
  5
778
330
534
100
AcDbDictionary
280
     1
281
     1
  3
ADSK_XREC_LAYER_RECONCILED
360
779
  0
DICTIONARY
  5
77A
330
535
100
AcDbDictionary
280
     1
281
     1
  3
ADSK_XREC_LAYER_RECONCILED
360
77B
  0
DICTIONARY
  5
77C
330
536
100
AcDbDictionary
280
     1
281
     1
  3
ADSK_XREC_LAYER_RECONCILED
360
77D
  0
DICTIONARY
  5
77E
330
537
100
AcDbDictionary
280
     1
281
     1
  3
ADSK_XREC_LAYER_RECONCILED
360
77F
  0
DICTIONARY
  5
780
330
538
100
AcDbDictionary
280
     1
281
     1
  3
ADSK_XREC_LAYER_RECONCILED
360
781
  0
DICTIONARY
  5
782
330
539
100
AcDbDictionary
280
     1
281
     1
  3
ADSK_XREC_LAYER_RECONCILED
360
783
  0
DICTIONARY
  5
602
330
1F
100
AcDbDictionary
280
     1
281
     1
  3
ACAD_SORTENTS
360
603
  0
IMAGEDEF_REACTOR
  5
4C
330
4B
100
AcDbRasterImageDefReactor
 90
        2
330
4B
  0
DICTIONARY
  5
7DD
102
{ACAD_REACTORS
330
C
102
}
330
C
100
AcDbDictionary
281
     1
  3
INTERFERECOLOR
350
7DE
  0
DICTIONARY
  5
325
102
{ACAD_REACTORS
330
C
102
}
330
C
100
AcDbDictionary
281
     1
  0
DICTIONARY
  5
D
102
{ACAD_REACTORS
330
C
102
}
330
C
100
AcDbDictionary
281
     1
  0
DICTIONARY
  5
49
102
{ACAD_REACTORS
330
C
102
}
330
C
100
AcDbDictionary
281
     1
  3
C:\!Data\Minds at Work\Martin Hart\Mirror Semiconductor\451650\dxf732.bmp
350
4A
  0
RASTERVARIABLES
  5
32B
102
{ACAD_REACTORS
330
C
102
}
330
C
100
AcDbRasterVariables
 90
        0
 70
     1
 71
     1
 72
     1
  0
DICTIONARY
  5
1A
102
{ACAD_REACTORS
330
C
102
}
330
C
100
AcDbDictionary
281
     1
  3
Layout1
350
1E
  3
Layout2
350
26
  3
Model
350
22
  0
DICTIONARY
  5
309
102
{ACAD_REACTORS
330
C
102
}
330
C
100
AcDbDictionary
281
     1
  3
ByBlock
350
312
  3
ByLayer
350
30A
  3
Global
350
31A
  0
DICTIONARY
  5
307
102
{ACAD_REACTORS
330
C
102
}
330
C
100
AcDbDictionary
281
     1
  3
Standard
350
327
  0
DICTIONARY
  5
17
102
{ACAD_REACTORS
330
C
102
}
330
C
100
AcDbDictionary
281
     1
  3
Standard
350
18
  0
DICTIONARY
  5
19
102
{ACAD_REACTORS
330
C
102
}
330
C
100
AcDbDictionary
281
     1
  0
ACDBDICTIONARYWDFLT
  5
E
102
{ACAD_REACTORS
330
C
102
}
330
C
100
AcDbDictionary
281
     1
  3
Normal
350
F
100
AcDbDictionaryWithDefault
340
F
  0
DICTIONARY
  5
62
102
{ACAD_REACTORS
330
C
102
}
330
C
100
AcDbDictionary
281
     1
  3
A0
350
63
  3
A1
350
64
  3
A2
350
65
  3
A3
350
66
  3
A4
350
67
  3
A5
350
68
  3
A6
350
69
  3
A7
350
6A
  3
A8
350
6B
  3
A9
350
6C
  3
B0
350
6D
  3
B1
350
6E
  3
B2
350
6F
  3
B3
350
70
  3
B4
350
71
  3
B5
350
72
  3
B6
350
73
  3
B7
350
74
  3
B8
350
75
  3
B9
350
76
  3
C0
350
77
  3
C1
350
78
  3
C2
350
79
  3
C3
350
7A
  3
C4
350
7B
  3
C5
350
7C
  3
C6
350
7D
  3
C7
350
7E
  3
C8
350
7F
  3
C9
350
80
  3
D0
350
81
  3
D1
350
82
  3
D2
350
83
  0
DICTIONARY
  5
306
102
{ACAD_REACTORS
330
C
102
}
330
C
100
AcDbDictionary
281
     1
  3
Standard
350
326
  0
DICTIONARY
  5
2A
102
{ACAD_REACTORS
330
C
102
}
330
C
100
AcDbDictionary
281
     1
  3
2dWireframe
350
2F
  3
3D Hidden
350
31
  3
3dWireframe
350
30
  3
Basic
350
32
  3
Brighten
350
36
  3
ColorChange
350
3A
  3
Conceptual
350
34
  3
Dim
350
35
  3
EdgeColorOff
350
324
  3
Facepattern
350
39
  3
Flat
350
2B
  3
FlatWithEdges
350
2C
  3
Gouraud
350
2D
  3
GouraudWithEdges
350
2E
  3
JitterOff
350
322
  3
Linepattern
350
38
  3
OverhangOff
350
323
  3
Realistic
350
33
  3
Thicken
350
37
  0
XRECORD
  5
7DB
102
{ACAD_REACTORS
330
C
102
}
330
C
100
AcDbXrecord
280
     1
 90
        1
330
326
  0
DICTIONARY
  5
304
102
{ACAD_REACTORS
330
C
102
}
330
C
100
AcDbDictionary
281
     1
  3
CANNOSCALE
350
305
  3
CMLEADERSTYLE
350
790
  3
CTABLESTYLE
350
78F
  3
DGNFRAME
350
7D6
  3
DIMASSOC
350
7D5
  3
HIDETEXT
350
7D3
  3
INDEXCTL
350
7D2
  3
LAYEREVAL
350
791
  3
LAYERNOTIFY
350
792
  3
LIGHTINGUNITS
350
7D0
  3
MSLTSCALE
350
7CF
  3
PSOLHEIGHT
350
7D8
  3
PSOLWIDTH
350
7D7
  3
SORTENTS
350
7D1
  3
XCLIPFRAME
350
7D4
  0
XRECORD
  5
7DC
102
{ACAD_REACTORS
330
C
102
}
330
C
100
AcDbXrecord
280
     1
  1
DWGPROPS COOKIE
  2

  3

  4

  6

  7

  8
JamesMTH
  9

300
=
301
=
302
=
303
=
304
=
305
=
306
=
307
=
308
=
309
=
 40
0.009090625
 41
2455604.861047315
 42
2455626.857734387
  1

 90
        0
  0
DICTIONARY
  5
788
102
{ACAD_REACTORS
330
787
102
}
330
787
100
AcDbDictionary
281
     1
  0
XRECORD
  5
76D
102
{ACAD_REACTORS
330
76C
102
}
330
76C
100
AcDbXrecord
280
     1
290
     1
  0
XRECORD
  5
76F
102
{ACAD_REACTORS
330
76E
102
}
330
76E
100
AcDbXrecord
280
     1
290
     1
  0
XRECORD
  5
771
102
{ACAD_REACTORS
330
770
102
}
330
770
100
AcDbXrecord
280
     1
290
     1
  0
XRECORD
  5
773
102
{ACAD_REACTORS
330
772
102
}
330
772
100
AcDbXrecord
280
     1
290
     1
  0
XRECORD
  5
775
102
{ACAD_REACTORS
330
774
102
}
330
774
100
AcDbXrecord
280
     1
290
     1
  0
XRECORD
  5
777
102
{ACAD_REACTORS
330
776
102
}
330
776
100
AcDbXrecord
280
     1
290
     1
  0
XRECORD
  5
779
102
{ACAD_REACTORS
330
778
102
}
330
778
100
AcDbXrecord
280
     1
290
     1
  0
XRECORD
  5
77B
102
{ACAD_REACTORS
330
77A
102
}
330
77A
100
AcDbXrecord
280
     1
290
     1
  0
XRECORD
  5
77D
102
{ACAD_REACTORS
330
77C
102
}
330
77C
100
AcDbXrecord
280
     1
290
     1
  0
XRECORD
  5
77F
102
{ACAD_REACTORS
330
77E
102
}
330
77E
100
AcDbXrecord
280
     1
290
     1
  0
XRECORD
  5
781
102
{ACAD_REACTORS
330
780
102
}
330
780
100
AcDbXrecord
280
     1
290
     1
  0
XRECORD
  5
783
102
{ACAD_REACTORS
330
782
102
}
330
782
100
AcDbXrecord
280
     1
290
     1
  0
SORTENTSTABLE
  5
603
102
{ACAD_REACTORS
330
602
102
}
330
602
100
AcDbSortentsTable
330
1F
331
62D
  5
633
331
6A5
  5
B1
331
629
  5
62E
331
6A1
  5
AD
331
625
  5
606
331
664
  5
69C
331
69D
  5
A9
331
621
  5
600
331
660
  5
2A2
331
699
  5
9F
331
AD
  5
C3
331
29E
  5
66B
331
29A
  5
667
331
65C
  5
29E
331
61D
  5
60C
331
658
  5
2A8
331
695
  5
9B
331
619
  5
638
331
296
  5
663
331
615
  5
63B
331
654
  5
2A4
331
292
  5
65D
331
118
  5
12E
331
611
  5
640
331
650
  5
614
331
689
  5
67C
331
28E
  5
656
331
9D
  5
B7
331
28A
  5
652
331
64C
  5
610
331
60D
  5
642
331
648
  5
61A
331
685
  5
69A
331
609
  5
649
331
681
  5
696
331
5C
  5
5C
331
605
  5
64A
331
644
  5
625
331
67D
  5
6A8
331
58
  5
58
331
601
  5
64E
331
640
  5
621
331
679
  5
6A4
331
54
  5
54
331
100
  5
116
331
50
  5
50
331
63C
  5
303
331
2A7
  5
677
331
675
  5
684
331
638
  5
2CB
331
2A3
  5
671
331
671
  5
680
331
6B0
  5
6B2
331
FC
  5
112
331
634
  5
62B
331
6AC
  5
6AE
331
66D
  5
689
331
F8
  5
10E
331
1E3
  5
295
331
630
  5
627
331
6A8
  5
635
331
669
  5
6A1
331
1CF
  5
1E5
331
1CB
  5
1E1
331
62C
  5
631
331
6A4
  5
B0
331
628
  5
62D
331
667
  5
69F
331
6A0
  5
AC
331
624
  5
605
331
663
  5
69B
331
69C
  5
A3
331
B0
  5
C6
331
620
  5
60F
331
698
  5
9E
331
29D
  5
66A
331
AC
  5
C2
331
299
  5
666
331
65F
  5
2A1
331
65B
  5
29D
331
61C
  5
60B
331
694
  5
9A
331
618
  5
637
331
657
  5
2A7
331
295
  5
662
331
614
  5
63D
331
653
  5
2A3
331
68C
  5
67F
331
117
  5
12D
331
291
  5
65C
331
A0
  5
BA
331
610
  5
63F
331
688
  5
67B
331
28D
  5
655
331
9C
  5
B6
331
289
  5
651
331
64F
  5
613
331
60C
  5
644
331
64B
  5
61D
331
684
  5
699
331
608
  5
648
331
647
  5
619
331
680
  5
695
331
5B
  5
5B
331
604
  5
64C
331
643
  5
624
331
67C
  5
6A7
331
57
  5
57
331
600
  5
64D
331
678
  5
6A3
331
53
  5
53
331
63F
  5
620
331
63B
  5
2F3
331
6B3
  5
BF
331
674
  5
683
331
FF
  5
115
331
4F
  5
4F
331
637
  5
2C1
331
2A6
  5
676
331
6AF
  5
6B1
331
670
  5
68C
331
FB
  5
111
331
1E6
  5
29B
331
4B
  5
4B
331
633
  5
62A
331
2A2
  5
670
331
6AB
  5
6AD
331
66C
  5
688
331
F7
  5
10D
331
1E2
  5
294
331
668
  5
6A0
331
1CE
  5
1E4
331
1CA
  5
1E0
331
62F
  5
626
331
62B
  5
630
331
6A7
  5
B3
331
627
  5
608
331
666
  5
69E
331
6A3
  5
AF
331
623
  5
604
331
662
  5
6AB
331
69F
  5
AB
331
69B
  5
A2
331
AF
  5
C5
331
29C
  5
669
331
AB
  5
C1
331
298
  5
665
331
65E
  5
2A0
331
61F
  5
60E
331
65A
  5
29C
331
61B
  5
60A
331
697
  5
9D
331
617
  5
63A
331
656
  5
2A6
331
613
  5
63C
331
652
  5
616
331
294
  5
661
331
A3
  5
BC
331
68B
  5
67E
331
290
  5
658
331
9F
  5
B9
331
28C
  5
654
331
9B
  5
B5
331
288
  5
650
331
64E
  5
612
331
60F
  5
641
331
64A
  5
61C
331
60B
  5
646
331
687
  5
67A
331
607
  5
647
331
646
  5
618
331
683
  5
698
331
10E
  5
124
331
642
  5
623
331
5A
  5
5A
331
67F
  5
694
331
56
  5
56
331
67B
  5
6A6
331
52
  5
52
331
63E
  5
61F
331
63A
  5
2E4
331
677
  5
686
331
2A5
  5
674
331
636
  5
2B5
331
6B2
  5
BE
331
673
  5
682
331
4E
  5
4E
331
FE
  5
114
331
2A1
  5
66F
331
632
  5
629
331
6AE
  5
6B0
331
66F
  5
68B
331
FA
  5
110
331
1E5
  5
297
331
6AA
  5
6AC
331
66B
  5
687
331
F6
  5
10C
331
1E1
  5
291
331
1CD
  5
1E3
331
62E
  5
634
331
62A
  5
62F
331
6A6
  5
B2
331
626
  5
607
331
665
  5
69D
331
6A2
  5
AE
331
622
  5
601
331
661
  5
6AA
331
69E
  5
AA
331
69A
  5
A0
331
AE
  5
C4
331
29F
  5
66D
331
15D
  5
173
331
AA
  5
C0
331
29B
  5
668
331
65D
  5
29F
331
61E
  5
60D
331
659
  5
2A9
331
61A
  5
609
331
696
  5
9C
331
616
  5
639
331
655
  5
2A5
331
297
  5
664
331
612
  5
63E
331
651
  5
615
331
A2
  5
BB
331
293
  5
65F
331
68A
  5
67D
331
9E
  5
B8
331
28F
  5
657
331
9A
  5
B4
331
28B
  5
653
331
64D
  5
611
331
60E
  5
643
331
649
  5
61B
331
60A
  5
645
331
686
  5
679
331
606
  5
64B
331
645
  5
617
331
682
  5
697
331
10D
  5
123
331
5D
  5
5D
331
641
  5
622
331
67E
  5
6A9
331
283
  5
64F
331
59
  5
59
331
67A
  5
6A5
331
55
  5
55
331
51
  5
51
331
63D
  5
61E
331
2A8
  5
678
331
639
  5
2D8
331
676
  5
685
331
2A4
  5
672
331
635
  5
62C
331
672
  5
681
331
6B1
  5
6B3
331
FD
  5
113
331
4D
  5
4D
331
2A0
  5
66E
331
631
  5
628
331
6AD
  5
6AF
331
66E
  5
68A
331
F9
  5
10F
331
1E4
  5
296
331
6A9
  5
636
331
66A
  5
6A2
331
F5
  5
10B
331
1E0
  5
290
331
1CC
  5
1E2
  0
XRECORD
  5
7DE
102
{ACAD_REACTORS
330
7DD
102
}
330
7DD
100
AcDbXrecord
280
     1
1004
1800000001000000000000C0000000000000000000000000
  0
IMAGEDEF
  5
4A
102
{ACAD_REACTORS
330
49
330
4C
102
}
330
49
100
AcDbRasterImageDef
 90
        0
  1
C:\!Data\Minds at Work\Martin Hart\Mirror Semiconductor\451650\dxf732.bmp
 10
1570.0
 20
942.0
 11
0.2645502645502646
 21
0.2645502645502646
280
     1
281
     3
  0
LAYOUT
  5
1E
102
{ACAD_XDICTIONARY
360
7DF
102
}
102
{ACAD_REACTORS
330
1A
102
}
330
1A
100
AcDbPlotSettings
  1

  2
none_device
  4

  6

 40
0.0
 41
0.0
 42
0.0
 43
0.0
 44
0.0
 45
0.0
 46
0.0
 47
0.0
 48
0.0
 49
0.0
140
0.0
141
0.0
142
1.0
143
1.0
 70
   688
 72
     0
 73
     0
 74
     5
  7

 75
    16
147
1.0
148
0.0
149
0.0
100
AcDbLayout
  1
Layout1
 70
     1
 71
     1
 10
0.0
 20
0.0
 11
420.0
 21
297.0
 12
0.0
 22
0.0
 32
0.0
 14
1.000000000000000E+20
 24
1.000000000000000E+20
 34
1.000000000000000E+20
 15
-1.000000000000000E+20
 25
-1.000000000000000E+20
 35
-1.000000000000000E+20
146
0.0
 13
0.0
 23
0.0
 33
0.0
 16
1.0
 26
0.0
 36
0.0
 17
0.0
 27
1.0
 37
0.0
 76
     0
330
1B
  0
LAYOUT
  5
26
102
{ACAD_XDICTIONARY
360
7E2
102
}
102
{ACAD_REACTORS
330
1A
102
}
330
1A
100
AcDbPlotSettings
  1

  2
none_device
  4

  6

 40
0.0
 41
0.0
 42
0.0
 43
0.0
 44
0.0
 45
0.0
 46
0.0
 47
0.0
 48
0.0
 49
0.0
140
0.0
141
0.0
142
1.0
143
1.0
 70
   688
 72
     0
 73
     0
 74
     5
  7

 75
    16
147
1.0
148
0.0
149
0.0
100
AcDbLayout
  1
Layout2
 70
     1
 71
     2
 10
0.0
 20
0.0
 11
0.0
 21
0.0
 12
0.0
 22
0.0
 32
0.0
 14
0.0
 24
0.0
 34
0.0
 15
0.0
 25
0.0
 35
0.0
146
0.0
 13
0.0
 23
0.0
 33
0.0
 16
1.0
 26
0.0
 36
0.0
 17
0.0
 27
1.0
 37
0.0
 76
     0
330
23
  0
LAYOUT
  5
22
102
{ACAD_XDICTIONARY
360
78D
102
}
102
{ACAD_REACTORS
330
1A
102
}
330
1A
100
AcDbPlotSettings
  1

  2
CutePDF Writer.pc3
  4
Letter
  6

 40
3.174999952316284
 41
3.174999952316284
 42
3.17498779296875
 43
3.175003051757812
 44
279.3999938964844
 45
215.8999938964844
 46
0.0
 47
0.4571350966270732
 48
0.0
 49
0.0
140
0.0
141
0.0
142
1.0
143
0.7098899209651252
 70
  3764
 72
     0
 73
     0
 74
     1
  7
monochrome.ctb
 75
     0
147
1.408669105543093
148
-4.11495915517687
149
-4.434897111649706
100
AcDbLayout
  1
Model
 70
     1
 71
     0
 10
0.0
 20
0.0
 11
279.4
 21
215.9
 12
0.0
 22
0.0
 32
0.0
 14
0.0
 24
0.0
 34
0.0
 15
279.4
 25
215.9
 35
0.0
146
0.0
 13
0.0
 23
0.0
 33
0.0
 16
1.0
 26
0.0
 36
0.0
 17
0.0
 27
1.0
 37
0.0
 76
     0
330
1F
331
29
1001
ACAD_PSEXT
1000
CutePDF Writer.pc3
1000
CutePDF Writer
1000
CPW2:
1000

1070
     0
  0
MATERIAL
  5
312
102
{ACAD_XDICTIONARY
360
313
102
}
102
{ACAD_REACTORS
330
309
102
}
330
309
100
AcDbMaterial
  1
ByBlock
 72
     0
 43
0.0008202099737533
 43
0.0
 43
0.0
 43
0.0
 43
0.0
 43
0.0008202099737533
 43
0.0
 43
0.0
 43
0.0
 43
0.0
 43
1.0
 43
0.0
 43
0.0
 43
0.0
 43
0.0
 43
1.0
 77
     0
 47
0.0008202099737533
 47
0.0
 47
0.0
 47
0.0
 47
0.0
 47
0.0008202099737533
 47
0.0
 47
0.0
 47
0.0
 47
0.0
 47
1.0
 47
0.0
 47
0.0
 47
0.0
 47
0.0
 47
1.0
171
     0
 49
0.0008202099737533
 49
0.0
 49
0.0
 49
0.0
 49
0.0
 49
0.0008202099737533
 49
0.0
 49
0.0
 49
0.0
 49
0.0
 49
1.0
 49
0.0
 49
0.0
 49
0.0
 49
0.0
 49
1.0
175
     0
142
0.0008202099737533
142
0.0
142
0.0
142
0.0
142
0.0
142
0.0008202099737533
142
0.0
142
0.0
142
0.0
142
0.0
142
1.0
142
0.0
142
0.0
142
0.0
142
0.0
142
1.0
179
     0
144
0.0008202099737533
144
0.0
144
0.0
144
0.0
144
0.0
144
0.0008202099737533
144
0.0
144
0.0
144
0.0
144
0.0
144
1.0
144
0.0
144
0.0
144
0.0
144
0.0
144
1.0
147
0.0008202099737533
147
0.0
147
0.0
147
0.0
147
0.0
147
0.0008202099737533
147
0.0
147
0.0
147
0.0
147
0.0
147
1.0
147
0.0
147
0.0
147
0.0
147
0.0
147
1.0
  0
MATERIAL
  5
30A
102
{ACAD_XDICTIONARY
360
30B
102
}
102
{ACAD_REACTORS
330
309
102
}
330
309
100
AcDbMaterial
  1
ByLayer
 72
     0
 43
0.0008202099737533
 43
0.0
 43
0.0
 43
0.0
 43
0.0
 43
0.0008202099737533
 43
0.0
 43
0.0
 43
0.0
 43
0.0
 43
1.0
 43
0.0
 43
0.0
 43
0.0
 43
0.0
 43
1.0
 77
     0
 47
0.0008202099737533
 47
0.0
 47
0.0
 47
0.0
 47
0.0
 47
0.0008202099737533
 47
0.0
 47
0.0
 47
0.0
 47
0.0
 47
1.0
 47
0.0
 47
0.0
 47
0.0
 47
0.0
 47
1.0
171
     0
 49
0.0008202099737533
 49
0.0
 49
0.0
 49
0.0
 49
0.0
 49
0.0008202099737533
 49
0.0
 49
0.0
 49
0.0
 49
0.0
 49
1.0
 49
0.0
 49
0.0
 49
0.0
 49
0.0
 49
1.0
175
     0
142
0.0008202099737533
142
0.0
142
0.0
142
0.0
142
0.0
142
0.0008202099737533
142
0.0
142
0.0
142
0.0
142
0.0
142
1.0
142
0.0
142
0.0
142
0.0
142
0.0
142
1.0
179
     0
144
0.0008202099737533
144
0.0
144
0.0
144
0.0
144
0.0
144
0.0008202099737533
144
0.0
144
0.0
144
0.0
144
0.0
144
1.0
144
0.0
144
0.0
144
0.0
144
0.0
144
1.0
147
0.0008202099737533
147
0.0
147
0.0
147
0.0
147
0.0
147
0.0008202099737533
147
0.0
147
0.0
147
0.0
147
0.0
147
1.0
147
0.0
147
0.0
147
0.0
147
0.0
147
1.0
  0
MATERIAL
  5
31A
102
{ACAD_XDICTIONARY
360
31B
102
}
102
{ACAD_REACTORS
330
309
102
}
330
309
100
AcDbMaterial
  1
Global
 72
     0
 43
0.0008202099737533
 43
0.0
 43
0.0
 43
0.0
 43
0.0
 43
0.0008202099737533
 43
0.0
 43
0.0
 43
0.0
 43
0.0
 43
1.0
 43
0.0
 43
0.0
 43
0.0
 43
0.0
 43
1.0
 77
     0
 47
0.0008202099737533
 47
0.0
 47
0.0
 47
0.0
 47
0.0
 47
0.0008202099737533
 47
0.0
 47
0.0
 47
0.0
 47
0.0
 47
1.0
 47
0.0
 47
0.0
 47
0.0
 47
0.0
 47
1.0
171
     0
 49
0.0008202099737533
 49
0.0
 49
0.0
 49
0.0
 49
0.0
 49
0.0008202099737533
 49
0.0
 49
0.0
 49
0.0
 49
0.0
 49
1.0
 49
0.0
 49
0.0
 49
0.0
 49
0.0
 49
1.0
175
     0
142
0.0008202099737533
142
0.0
142
0.0
142
0.0
142
0.0
142
0.0008202099737533
142
0.0
142
0.0
142
0.0
142
0.0
142
1.0
142
0.0
142
0.0
142
0.0
142
0.0
142
1.0
179
     0
144
0.0008202099737533
144
0.0
144
0.0
144
0.0
144
0.0
144
0.0008202099737533
144
0.0
144
0.0
144
0.0
144
0.0
144
1.0
144
0.0
144
0.0
144
0.0
144
0.0
144
1.0
147
0.0008202099737533
147
0.0
147
0.0
147
0.0
147
0.0
147
0.0008202099737533
147
0.0
147
0.0
147
0.0
147
0.0
147
1.0
147
0.0
147
0.0
147
0.0
147
0.0
147
1.0
  0
MLEADERSTYLE
  5
327
102
{ACAD_REACTORS
330
307
102
}
330
307
100
AcDbMLeaderStyle
170
     2
171
     1
172
     0
 90
        2
 40
0.0
 41
0.0
173
     1
 91
-1056964608
340
14
 92
       -2
290
     1
 42
2.0
291
     1
 43
0.36
  3
Standard
 44
4.0
300

342
11
174
     1
178
     6
175
     1
176
     0
 93
-1056964608
 45
4.0
292
     0
297
     0
 46
4.0
 94
-1056964608
 47
1.0
 49
1.0
140
1.0
293
     1
141
0.0
294
     1
177
     0
142
1.0
295
     0
296
     0
143
0.125
1001
ACAD_MLEADERVER
1070
     2
  0
MLINESTYLE
  5
18
102
{ACAD_REACTORS
330
17
102
}
330
17
100
AcDbMlineStyle
  2
STANDARD
 70
     0
  3

 62
   256
 51
90.0
 52
90.0
 71
     2
 49
0.5
 62
   256
  6
BYLAYER
 49
-0.5
 62
   256
  6
BYLAYER
  0
ACDBPLACEHOLDER
  5
F
102
{ACAD_REACTORS
330
E
102
}
330
E
  0
SCALE
  5
63
102
{ACAD_REACTORS
330
62
102
}
330
62
100
AcDbScale
 70
     0
300
1:1
140
1.0
141
1.0
290
     1
  0
SCALE
  5
64
102
{ACAD_REACTORS
330
62
102
}
330
62
100
AcDbScale
 70
     0
300
1:2
140
1.0
141
2.0
290
     0
  0
SCALE
  5
65
102
{ACAD_REACTORS
330
62
102
}
330
62
100
AcDbScale
 70
     0
300
1:4
140
1.0
141
4.0
290
     0
  0
SCALE
  5
66
102
{ACAD_REACTORS
330
62
102
}
330
62
100
AcDbScale
 70
     0
300
1:5
140
1.0
141
5.0
290
     0
  0
SCALE
  5
67
102
{ACAD_REACTORS
330
62
102
}
330
62
100
AcDbScale
 70
     0
300
1:8
140
1.0
141
8.0
290
     0
  0
SCALE
  5
68
102
{ACAD_REACTORS
330
62
102
}
330
62
100
AcDbScale
 70
     0
300
1:10
140
1.0
141
10.0
290
     0
  0
SCALE
  5
69
102
{ACAD_REACTORS
330
62
102
}
330
62
100
AcDbScale
 70
     0
300
1:16
140
1.0
141
16.0
290
     0
  0
SCALE
  5
6A
102
{ACAD_REACTORS
330
62
102
}
330
62
100
AcDbScale
 70
     0
300
1:20
140
1.0
141
20.0
290
     0
  0
SCALE
  5
6B
102
{ACAD_REACTORS
330
62
102
}
330
62
100
AcDbScale
 70
     0
300
1:30
140
1.0
141
30.0
290
     0
  0
SCALE
  5
6C
102
{ACAD_REACTORS
330
62
102
}
330
62
100
AcDbScale
 70
     0
300
1:40
140
1.0
141
40.0
290
     0
  0
SCALE
  5
6D
102
{ACAD_REACTORS
330
62
102
}
330
62
100
AcDbScale
 70
     0
300
1:50
140
1.0
141
50.0
290
     0
  0
SCALE
  5
6E
102
{ACAD_REACTORS
330
62
102
}
330
62
100
AcDbScale
 70
     0
300
1:100
140
1.0
141
100.0
290
     0
  0
SCALE
  5
6F
102
{ACAD_REACTORS
330
62
102
}
330
62
100
AcDbScale
 70
     0
300
2:1
140
2.0
141
1.0
290
     0
  0
SCALE
  5
70
102
{ACAD_REACTORS
330
62
102
}
330
62
100
AcDbScale
 70
     0
300
4:1
140
4.0
141
1.0
290
     0
  0
SCALE
  5
71
102
{ACAD_REACTORS
330
62
102
}
330
62
100
AcDbScale
 70
     0
300
8:1
140
8.0
141
1.0
290
     0
  0
SCALE
  5
72
102
{ACAD_REACTORS
330
62
102
}
330
62
100
AcDbScale
 70
     0
300
10:1
140
10.0
141
1.0
290
     0
  0
SCALE
  5
73
102
{ACAD_REACTORS
330
62
102
}
330
62
100
AcDbScale
 70
     0
300
100:1
140
100.0
141
1.0
290
     0
  0
SCALE
  5
74
102
{ACAD_REACTORS
330
62
102
}
330
62
100
AcDbScale
 70
     0
300
1/128" = 1'-0"
140
0.0078125
141
12.0
290
     0
  0
SCALE
  5
75
102
{ACAD_REACTORS
330
62
102
}
330
62
100
AcDbScale
 70
     0
300
1/64" = 1'-0"
140
0.015625
141
12.0
290
     0
  0
SCALE
  5
76
102
{ACAD_REACTORS
330
62
102
}
330
62
100
AcDbScale
 70
     0
300
1/32" = 1'-0"
140
0.03125
141
12.0
290
     0
  0
SCALE
  5
77
102
{ACAD_REACTORS
330
62
102
}
330
62
100
AcDbScale
 70
     0
300
1/16" = 1'-0"
140
0.0625
141
12.0
290
     0
  0
SCALE
  5
78
102
{ACAD_REACTORS
330
62
102
}
330
62
100
AcDbScale
 70
     0
300
3/32" = 1'-0"
140
0.09375
141
12.0
290
     0
  0
SCALE
  5
79
102
{ACAD_REACTORS
330
62
102
}
330
62
100
AcDbScale
 70
     0
300
1/8" = 1'-0"
140
0.125
141
12.0
290
     0
  0
SCALE
  5
7A
102
{ACAD_REACTORS
330
62
102
}
330
62
100
AcDbScale
 70
     0
300
3/16" = 1'-0"
140
0.1875
141
12.0
290
     0
  0
SCALE
  5
7B
102
{ACAD_REACTORS
330
62
102
}
330
62
100
AcDbScale
 70
     0
300
1/4" = 1'-0"
140
0.25
141
12.0
290
     0
  0
SCALE
  5
7C
102
{ACAD_REACTORS
330
62
102
}
330
62
100
AcDbScale
 70
     0
300
3/8" = 1'-0"
140
0.375
141
12.0
290
     0
  0
SCALE
  5
7D
102
{ACAD_REACTORS
330
62
102
}
330
62
100
AcDbScale
 70
     0
300
1/2" = 1'-0"
140
0.5
141
12.0
290
     0
  0
SCALE
  5
7E
102
{ACAD_REACTORS
330
62
102
}
330
62
100
AcDbScale
 70
     0
300
3/4" = 1'-0"
140
0.75
141
12.0
290
     0
  0
SCALE
  5
7F
102
{ACAD_REACTORS
330
62
102
}
330
62
100
AcDbScale
 70
     0
300
1" = 1'-0"
140
1.0
141
12.0
290
     0
  0
SCALE
  5
80
102
{ACAD_REACTORS
330
62
102
}
330
62
100
AcDbScale
 70
     0
300
1-1/2" = 1'-0"
140
1.5
141
12.0
290
     0
  0
SCALE
  5
81
102
{ACAD_REACTORS
330
62
102
}
330
62
100
AcDbScale
 70
     0
300
3" = 1'-0"
140
3.0
141
12.0
290
     0
  0
SCALE
  5
82
102
{ACAD_REACTORS
330
62
102
}
330
62
100
AcDbScale
 70
     0
300
6" = 1'-0"
140
6.0
141
12.0
290
     0
  0
SCALE
  5
83
102
{ACAD_REACTORS
330
62
102
}
330
62
100
AcDbScale
 70
     0
300
1'-0" = 1'-0"
140
12.0
141
12.0
290
     0
  0
TABLESTYLE
  5
326
102
{ACAD_XDICTIONARY
360
7D9
102
}
102
{ACAD_REACTORS
330
306
102
}
330
306
100
AcDbTableStyle
  3
Standard
 70
     0
 71
     0
 40
1.5
 41
1.5
280
     0
281
     0
  7
Standard
140
4.5
170
     2
 62
     0
 63
     7
283
     0
274
    -2
284
     1
 64
     0
275
    -2
285
     1
 65
     0
276
    -2
286
     1
 66
     0
277
    -2
287
     1
 67
     0
278
    -2
288
     1
 68
     0
279
    -2
289
     1
 69
     0
  7
Standard
140
6.0
170
     5
 62
     0
 63
     7
283
     0
274
    -2
284
     1
 64
     0
275
    -2
285
     1
 65
     0
276
    -2
286
     1
 66
     0
277
    -2
287
     1
 67
     0
278
    -2
288
     1
 68
     0
279
    -2
289
     1
 69
     0
  7
Standard
140
4.5
170
     5
 62
     0
 63
     7
283
     0
274
    -2
284
     1
 64
     0
275
    -2
285
     1
 65
     0
276
    -2
286
     1
 66
     0
277
    -2
287
     1
 67
     0
278
    -2
288
     1
 68
     0
279
    -2
289
     1
 69
     0
  0
VISUALSTYLE
  5
2F
102
{ACAD_XDICTIONARY
360
7EC
102
}
102
{ACAD_REACTORS
330
2A
102
}
330
2A
100
AcDbVisualStyle
  2
2dWireframe
 70
     4
 71
     0
 72
     2
 73
     0
 90
        0
 40
-0.6
 41
-30.0
 62
     5
 63
     7
 74
     1
 91
        4
 64
     7
 65
   257
 75
     1
175
     1
 42
1.0
 92
        0
 66
   257
 43
1.0
 76
     1
 77
     6
 78
     2
 67
     7
 79
     5
170
     0
171
     0
290
     0
174
     0
 93
        1
 44
0.0
173
     0
291
     0
 45
0.0
1001
ACAD
1000
AcDbSavedByObjectVersion
1070
     0
  0
VISUALSTYLE
  5
31
102
{ACAD_XDICTIONARY
360
7F0
102
}
102
{ACAD_REACTORS
330
2A
102
}
330
2A
100
AcDbVisualStyle
  2
3D Hidden
 70
     6
 71
     1
 72
     2
 73
     2
 90
        0
 40
-0.6
 41
-30.0
 62
     5
 63
     7
 74
     2
 91
        2
 64
     7
 65
   257
 75
     2
175
     1
 42
40.0
 92
        0
 66
   257
 43
1.0
 76
     1
 77
     6
 78
     2
 67
     7
 79
     3
170
     0
171
     0
290
     0
174
     0
 93
        1
 44
0.0
173
     0
291
     0
 45
0.0
1001
ACAD
1000
AcDbSavedByObjectVersion
1070
     0
  0
VISUALSTYLE
  5
30
102
{ACAD_XDICTIONARY
360
7EE
102
}
102
{ACAD_REACTORS
330
2A
102
}
330
2A
100
AcDbVisualStyle
  2
3dWireframe
 70
     5
 71
     0
 72
     2
 73
     0
 90
        0
 40
-0.6
 41
-30.0
 62
     5
 63
     7
 74
     1
 91
        4
 64
     7
 65
   257
 75
     1
175
     1
 42
1.0
 92
        0
 66
   257
 43
1.0
 76
     1
 77
     6
 78
     2
 67
     7
 79
     5
170
     0
171
     0
290
     0
174
     0
 93
        1
 44
0.0
173
     0
291
     0
 45
0.0
1001
ACAD
1000
AcDbSavedByObjectVersion
1070
     0
  0
VISUALSTYLE
  5
32
102
{ACAD_XDICTIONARY
360
7F2
102
}
102
{ACAD_REACTORS
330
2A
102
}
330
2A
100
AcDbVisualStyle
  2
Basic
 70
     7
 71
     1
 72
     0
 73
     1
 90
        0
 40
-0.6
 41
-30.0
 62
     5
 63
     7
 74
     0
 91
        4
 64
     7
 65
   257
 75
     1
175
     1
 42
1.0
 92
        8
 66
     7
 43
1.0
 76
     1
 77
     6
 78
     2
 67
     7
 79
     5
170
     0
171
     0
290
     0
174
     0
 93
        1
 44
0.0
173
     0
291
     1
 45
0.0
1001
ACAD
1000
AcDbSavedByObjectVersion
1070
     0
  0
VISUALSTYLE
  5
36
102
{ACAD_XDICTIONARY
360
7FA
102
}
102
{ACAD_REACTORS
330
2A
102
}
330
2A
100
AcDbVisualStyle
  2
Brighten
 70
    12
 71
     2
 72
     2
 73
     0
 90
        0
 40
-0.6
 41
-30.0
 62
     5
 63
     7
 74
     1
 91
        4
 64
     7
 65
   257
 75
     1
175
     1
 42
1.0
 92
        8
 66
     7
 43
1.0
 76
     1
 77
     6
 78
     2
 67
     7
 79
     5
170
     0
171
     0
290
     0
174
     0
 93
        1
 44
50.0
173
     0
291
     1
 45
0.0
1001
ACAD
1000
AcDbSavedByObjectVersion
1070
     0
  0
VISUALSTYLE
  5
3A
102
{ACAD_XDICTIONARY
360
802
102
}
102
{ACAD_REACTORS
330
2A
102
}
330
2A
100
AcDbVisualStyle
  2
ColorChange
 70
    16
 71
     2
 72
     2
 73
     3
 90
        0
 40
-0.6
 41
-30.0
 62
     5
 63
     8
 74
     1
 91
        4
 64
     7
 65
   257
 75
     1
175
     1
 42
1.0
 92
        8
 66
     8
 43
1.0
 76
     1
 77
     6
 78
     2
 67
     7
 79
     5
170
     0
171
     0
290
     0
174
     0
 93
        1
 44
0.0
173
     0
291
     1
 45
0.0
1001
ACAD
1000
AcDbSavedByObjectVersion
1070
     0
  0
VISUALSTYLE
  5
34
102
{ACAD_XDICTIONARY
360
7F6
102
}
102
{ACAD_REACTORS
330
2A
102
}
330
2A
100
AcDbVisualStyle
  2
Conceptual
 70
     9
 71
     3
 72
     2
 73
     0
 90
        0
 40
-0.6
 41
-30.0
 62
     5
 63
     7
 74
     2
 91
        2
 64
     7
 65
   257
 75
     1
175
     1
 42
40.0
 92
        8
 66
     7
 43
1.0
 76
     1
 77
     6
 78
     2
 67
     7
 79
     3
170
     0
171
     0
290
     0
174
     0
 93
        1
 44
0.0
173
     0
291
     0
 45
0.0
1001
ACAD
1000
AcDbSavedByObjectVersion
1070
     0
  0
VISUALSTYLE
  5
35
102
{ACAD_XDICTIONARY
360
7F8
102
}
102
{ACAD_REACTORS
330
2A
102
}
330
2A
100
AcDbVisualStyle
  2
Dim
 70
    11
 71
     2
 72
     2
 73
     0
 90
        0
 40
-0.6
 41
-30.0
 62
     5
 63
     7
 74
     1
 91
        4
 64
     7
 65
   257
 75
     1
175
     1
 42
1.0
 92
        8
 66
     7
 43
1.0
 76
     1
 77
     6
 78
     2
 67
     7
 79
     5
170
     0
171
     0
290
     0
174
     0
 93
        1
 44
-50.0
173
     0
291
     1
 45
0.0
1001
ACAD
1000
AcDbSavedByObjectVersion
1070
     0
  0
VISUALSTYLE
  5
324
102
{ACAD_XDICTIONARY
360
80B
102
}
102
{ACAD_REACTORS
330
2A
102
}
330
2A
100
AcDbVisualStyle
  2
EdgeColorOff
 70
    22
 71
     2
 72
     2
 73
     0
 90
        0
 40
-0.6
 41
-30.0
 62
     5
 63
     7
 74
     1
 91
        4
 64
     7
 65
   257
 75
     1
175
     1
 42
1.0
 92
        8
 66
     7
 43
1.0
 76
     1
 77
     6
 78
     2
 67
     7
 79
     5
170
     0
171
     0
290
     0
174
     0
 93
        1
 44
0.0
173
     0
291
     1
 45
0.0
1001
ACAD
1000
AcDbSavedByObjectVersion
1070
     0
  0
VISUALSTYLE
  5
39
102
{ACAD_XDICTIONARY
360
800
102
}
102
{ACAD_REACTORS
330
2A
102
}
330
2A
100
AcDbVisualStyle
  2
Facepattern
 70
    15
 71
     2
 72
     2
 73
     0
 90
        0
 40
-0.6
 41
-30.0
 62
     5
 63
     7
 74
     1
 91
        4
 64
     7
 65
   257
 75
     1
175
     1
 42
1.0
 92
        8
 66
     7
 43
1.0
 76
     1
 77
     6
 78
     2
 67
     7
 79
     5
170
     0
171
     0
290
     0
174
     0
 93
        1
 44
0.0
173
     0
291
     1
 45
0.0
1001
ACAD
1000
AcDbSavedByObjectVersion
1070
     0
  0
VISUALSTYLE
  5
2B
102
{ACAD_XDICTIONARY
360
7E4
102
}
102
{ACAD_REACTORS
330
2A
102
}
330
2A
100
AcDbVisualStyle
  2
Flat
 70
     0
 71
     2
 72
     1
 73
     1
 90
        2
 40
-0.6
 41
30.0
 62
     5
 63
     7
 74
     0
 91
        4
 64
     7
 65
   257
 75
     1
175
     1
 42
1.0
 92
        8
 66
     7
 43
1.0
 76
     1
 77
     6
 78
     2
 67
     7
 79
     5
170
     0
171
     0
290
     0
174
     0
 93
       13
 44
0.0
173
     0
291
     1
 45
0.0
1001
ACAD
1000
AcDbSavedByObjectVersion
1070
     0
  0
VISUALSTYLE
  5
2C
102
{ACAD_XDICTIONARY
360
7E6
102
}
102
{ACAD_REACTORS
330
2A
102
}
330
2A
100
AcDbVisualStyle
  2
FlatWithEdges
 70
     1
 71
     2
 72
     1
 73
     1
 90
        2
 40
-0.6
 41
30.0
 62
     5
 63
     7
 74
     1
 91
        4
 64
     7
 65
   257
 75
     1
175
     1
 42
1.0
 92
        0
 66
   257
 43
1.0
 76
     1
 77
     6
 78
     2
 67
     7
 79
     5
170
     0
171
     0
290
     0
174
     0
 93
       13
 44
0.0
173
     0
291
     1
 45
0.0
1001
ACAD
1000
AcDbSavedByObjectVersion
1070
     0
  0
VISUALSTYLE
  5
2D
102
{ACAD_XDICTIONARY
360
7E8
102
}
102
{ACAD_REACTORS
330
2A
102
}
330
2A
100
AcDbVisualStyle
  2
Gouraud
 70
     2
 71
     2
 72
     2
 73
     1
 90
        2
 40
-0.6
 41
30.0
 62
     5
 63
     7
 74
     0
 91
        4
 64
     7
 65
   257
 75
     1
175
     1
 42
1.0
 92
        0
 66
     7
 43
1.0
 76
     1
 77
     6
 78
     2
 67
     7
 79
     5
170
     0
171
     0
290
     0
174
     0
 93
       13
 44
0.0
173
     0
291
     1
 45
0.0
1001
ACAD
1000
AcDbSavedByObjectVersion
1070
     0
  0
VISUALSTYLE
  5
2E
102
{ACAD_XDICTIONARY
360
7EA
102
}
102
{ACAD_REACTORS
330
2A
102
}
330
2A
100
AcDbVisualStyle
  2
GouraudWithEdges
 70
     3
 71
     2
 72
     2
 73
     1
 90
        2
 40
-0.6
 41
30.0
 62
     5
 63
     7
 74
     1
 91
        4
 64
     7
 65
   257
 75
     1
175
     1
 42
1.0
 92
        0
 66
   257
 43
1.0
 76
     1
 77
     6
 78
     2
 67
     7
 79
     5
170
     0
171
     0
290
     0
174
     0
 93
       13
 44
0.0
173
     0
291
     1
 45
0.0
1001
ACAD
1000
AcDbSavedByObjectVersion
1070
     0
  0
VISUALSTYLE
  5
322
102
{ACAD_XDICTIONARY
360
807
102
}
102
{ACAD_REACTORS
330
2A
102
}
330
2A
100
AcDbVisualStyle
  2
JitterOff
 70
    20
 71
     2
 72
     2
 73
     0
 90
        0
 40
-0.6
 41
-30.0
 62
     5
 63
     7
 74
     1
 91
        4
 64
     7
 65
   257
 75
     1
175
     1
 42
1.0
 92
       10
 66
     7
 43
1.0
 76
     1
 77
     6
 78
     2
 67
     7
 79
     5
170
     0
171
     0
290
     0
174
     0
 93
        1
 44
0.0
173
     0
291
     1
 45
0.0
1001
ACAD
1000
AcDbSavedByObjectVersion
1070
     0
  0
VISUALSTYLE
  5
38
102
{ACAD_XDICTIONARY
360
7FE
102
}
102
{ACAD_REACTORS
330
2A
102
}
330
2A
100
AcDbVisualStyle
  2
Linepattern
 70
    14
 71
     2
 72
     2
 73
     0
 90
        0
 40
-0.6
 41
-30.0
 62
     5
 63
     7
 74
     1
 91
        4
 64
     7
 65
   257
 75
     7
175
     7
 42
1.0
 92
        8
 66
     7
 43
1.0
 76
     1
 77
     6
 78
     2
 67
     7
 79
     5
170
     0
171
     0
290
     0
174
     0
 93
        1
 44
0.0
173
     0
291
     1
 45
0.0
1001
ACAD
1000
AcDbSavedByObjectVersion
1070
     0
  0
VISUALSTYLE
  5
323
102
{ACAD_XDICTIONARY
360
809
102
}
102
{ACAD_REACTORS
330
2A
102
}
330
2A
100
AcDbVisualStyle
  2
OverhangOff
 70
    21
 71
     2
 72
     2
 73
     0
 90
        0
 40
-0.6
 41
-30.0
 62
     5
 63
     7
 74
     1
 91
        4
 64
     7
 65
   257
 75
     1
175
     1
 42
1.0
 92
        9
 66
     7
 43
1.0
 76
     1
 77
     6
 78
     2
 67
     7
 79
     5
170
     0
171
     0
290
     0
174
     0
 93
        1
 44
0.0
173
     0
291
     1
 45
0.0
1001
ACAD
1000
AcDbSavedByObjectVersion
1070
     0
  0
VISUALSTYLE
  5
33
102
{ACAD_XDICTIONARY
360
7F4
102
}
102
{ACAD_REACTORS
330
2A
102
}
330
2A
100
AcDbVisualStyle
  2
Realistic
 70
     8
 71
     2
 72
     2
 73
     0
 90
        0
 40
-0.6
 41
-30.0
 62
     5
 63
     7
 74
     1
 91
        0
 64
     7
 65
   257
 75
     1
175
     1
 42
1.0
 92
        8
 66
     8
 43
1.0
 76
     1
 77
     6
 78
     2
 67
     7
 79
     5
170
     0
171
     0
290
     0
174
     0
 93
       13
 44
0.0
173
     0
291
     0
 45
0.0
1001
ACAD
1000
AcDbSavedByObjectVersion
1070
     0
  0
VISUALSTYLE
  5
37
102
{ACAD_XDICTIONARY
360
7FC
102
}
102
{ACAD_REACTORS
330
2A
102
}
330
2A
100
AcDbVisualStyle
  2
Thicken
 70
    13
 71
     2
 72
     2
 73
     0
 90
        0
 40
-0.6
 41
-30.0
 62
     5
 63
     7
 74
     1
 91
        4
 64
     7
 65
   257
 75
     1
175
     1
 42
1.0
 92
       12
 66
     7
 43
1.0
 76
     1
 77
     6
 78
     2
 67
     7
 79
     5
170
     0
171
     0
290
     0
174
     0
 93
        1
 44
0.0
173
     0
291
     1
 45
0.0
1001
ACAD
1000
AcDbSavedByObjectVersion
1070
     0
  0
DICTIONARYVAR
  5
305
102
{ACAD_REACTORS
330
304
102
}
330
304
100
DictionaryVariables
280
     0
  1
1:1
  0
DICTIONARYVAR
  5
790
102
{ACAD_REACTORS
330
304
102
}
330
304
100
DictionaryVariables
280
     0
  1
STANDARD
  0
DICTIONARYVAR
  5
78F
102
{ACAD_REACTORS
330
304
102
}
330
304
100
DictionaryVariables
280
     0
  1
STANDARD
  0
DICTIONARYVAR
  5
7D6
102
{ACAD_REACTORS
330
304
102
}
330
304
100
DictionaryVariables
280
     0
  1
2
  0
DICTIONARYVAR
  5
7D5
102
{ACAD_REACTORS
330
304
102
}
330
304
100
DictionaryVariables
280
     0
  1
2
  0
DICTIONARYVAR
  5
7D3
102
{ACAD_REACTORS
330
304
102
}
330
304
100
DictionaryVariables
280
     0
  1
1
  0
DICTIONARYVAR
  5
7D2
102
{ACAD_REACTORS
330
304
102
}
330
304
100
DictionaryVariables
280
     0
  1
0
  0
DICTIONARYVAR
  5
791
102
{ACAD_REACTORS
330
304
102
}
330
304
100
DictionaryVariables
280
     0
  1
1
  0
DICTIONARYVAR
  5
792
102
{ACAD_REACTORS
330
304
102
}
330
304
100
DictionaryVariables
280
     0
  1
15
  0
DICTIONARYVAR
  5
7D0
102
{ACAD_REACTORS
330
304
102
}
330
304
100
DictionaryVariables
280
     0
  1
2
  0
DICTIONARYVAR
  5
7CF
102
{ACAD_REACTORS
330
304
102
}
330
304
100
DictionaryVariables
280
     0
  1
1
  0
DICTIONARYVAR
  5
7D8
102
{ACAD_REACTORS
330
304
102
}
330
304
100
DictionaryVariables
280
     0
  1
80.000000
  0
DICTIONARYVAR
  5
7D7
102
{ACAD_REACTORS
330
304
102
}
330
304
100
DictionaryVariables
280
     0
  1
5.000000
  0
DICTIONARYVAR
  5
7D1
102
{ACAD_REACTORS
330
304
102
}
330
304
100
DictionaryVariables
280
     0
  1
127
  0
DICTIONARYVAR
  5
7D4
102
{ACAD_REACTORS
330
304
102
}
330
304
100
DictionaryVariables
280
     0
  1
0
  0
DICTIONARY
  5
7DF
330
1E
100
AcDbDictionary
280
     1
281
     1
  3
ACAD_XREC_ROUNDTRIP
360
7E0
  0
DICTIONARY
  5
7E2
330
26
100
AcDbDictionary
280
     1
281
     1
  3
ACAD_XREC_ROUNDTRIP
360
7E3
  0
DICTIONARY
  5
78D
330
22
100
AcDbDictionary
280
     1
281
     1
  3
ACAD_XREC_ROUNDTRIP
360
7E1
  3
ADSK_XREC_LAYOUTTHUMBNAIL
360
78E
  0
DICTIONARY
  5
313
330
312
100
AcDbDictionary
280
     1
281
     1
  3
ACAD_XREC_ROUNDTRIP
360
805
  3
BUMPTILE
360
315
  3
DIFFUSETILE
360
314
  3
OPACITYTILE
360
318
  3
REFLECTIONTILE
360
317
  3
REFRACTIONTILE
360
319
  3
SPECULARTILE
360
316
  0
DICTIONARY
  5
30B
330
30A
100
AcDbDictionary
280
     1
281
     1
  3
ACAD_XREC_ROUNDTRIP
360
804
  3
BUMPTILE
360
30D
  3
DIFFUSETILE
360
30C
  3
OPACITYTILE
360
310
  3
REFLECTIONTILE
360
30F
  3
REFRACTIONTILE
360
311
  3
SPECULARTILE
360
30E
  0
DICTIONARY
  5
31B
330
31A
100
AcDbDictionary
280
     1
281
     1
  3
ACAD_XREC_ROUNDTRIP
360
806
  3
BUMPTILE
360
31D
  3
DIFFUSETILE
360
31C
  3
OPACITYTILE
360
320
  3
REFLECTIONTILE
360
31F
  3
REFRACTIONTILE
360
321
  3
SPECULARTILE
360
31E
  0
DICTIONARY
  5
7D9
330
326
100
AcDbDictionary
280
     1
281
     1
  3
ACAD_ROUNDTRIP_2008_TABLESTYLE_CELLSTYLEMAP
360
7DA
  3
ACAD_XREC_ROUNDTRIP
360
80D
  0
DICTIONARY
  5
7EC
330
2F
100
AcDbDictionary
280
     1
281
     1
  3
ACAD_XREC_ROUNDTRIP
360
7ED
  0
DICTIONARY
  5
7F0
330
31
100
AcDbDictionary
280
     1
281
     1
  3
ACAD_XREC_ROUNDTRIP
360
7F1
  0
DICTIONARY
  5
7EE
330
30
100
AcDbDictionary
280
     1
281
     1
  3
ACAD_XREC_ROUNDTRIP
360
7EF
  0
DICTIONARY
  5
7F2
330
32
100
AcDbDictionary
280
     1
281
     1
  3
ACAD_XREC_ROUNDTRIP
360
7F3
  0
DICTIONARY
  5
7FA
330
36
100
AcDbDictionary
280
     1
281
     1
  3
ACAD_XREC_ROUNDTRIP
360
7FB
  0
DICTIONARY
  5
802
330
3A
100
AcDbDictionary
280
     1
281
     1
  3
ACAD_XREC_ROUNDTRIP
360
803
  0
DICTIONARY
  5
7F6
330
34
100
AcDbDictionary
280
     1
281
     1
  3
ACAD_XREC_ROUNDTRIP
360
7F7
  0
DICTIONARY
  5
7F8
330
35
100
AcDbDictionary
280
     1
281
     1
  3
ACAD_XREC_ROUNDTRIP
360
7F9
  0
DICTIONARY
  5
80B
330
324
100
AcDbDictionary
280
     1
281
     1
  3
ACAD_XREC_ROUNDTRIP
360
80C
  0
DICTIONARY
  5
800
330
39
100
AcDbDictionary
280
     1
281
     1
  3
ACAD_XREC_ROUNDTRIP
360
801
  0
DICTIONARY
  5
7E4
330
2B
100
AcDbDictionary
280
     1
281
     1
  3
ACAD_XREC_ROUNDTRIP
360
7E5
  0
DICTIONARY
  5
7E6
330
2C
100
AcDbDictionary
280
     1
281
     1
  3
ACAD_XREC_ROUNDTRIP
360
7E7
  0
DICTIONARY
  5
7E8
330
2D
100
AcDbDictionary
280
     1
281
     1
  3
ACAD_XREC_ROUNDTRIP
360
7E9
  0
DICTIONARY
  5
7EA
330
2E
100
AcDbDictionary
280
     1
281
     1
  3
ACAD_XREC_ROUNDTRIP
360
7EB
  0
DICTIONARY
  5
807
330
322
100
AcDbDictionary
280
     1
281
     1
  3
ACAD_XREC_ROUNDTRIP
360
808
  0
DICTIONARY
  5
7FE
330
38
100
AcDbDictionary
280
     1
281
     1
  3
ACAD_XREC_ROUNDTRIP
360
7FF
  0
DICTIONARY
  5
809
330
323
100
AcDbDictionary
280
     1
281
     1
  3
ACAD_XREC_ROUNDTRIP
360
80A
  0
DICTIONARY
  5
7F4
330
33
100
AcDbDictionary
280
     1
281
     1
  3
ACAD_XREC_ROUNDTRIP
360
7F5
  0
DICTIONARY
  5
7FC
330
37
100
AcDbDictionary
280
     1
281
     1
  3
ACAD_XREC_ROUNDTRIP
360
7FD
  0
XRECORD
  5
7E0
102
{ACAD_REACTORS
330
7DF
102
}
330
7DF
100
AcDbXrecord
280
     1
102
SHADEPLOT
 70
     0
102
SHADEPLOTRESLEVEL
 70
     2
102
SHADEPLOTCUSTOMDPI
 70
   300
  0
XRECORD
  5
7E3
102
{ACAD_REACTORS
330
7E2
102
}
330
7E2
100
AcDbXrecord
280
     1
102
SHADEPLOT
 70
     0
102
SHADEPLOTRESLEVEL
 70
     2
102
SHADEPLOTCUSTOMDPI
 70
   300
  0
XRECORD
  5
7E1
102
{ACAD_REACTORS
330
78D
102
}
330
78D
100
AcDbXrecord
280
     1
102
SHADEPLOT
 70
     1
102
SHADEPLOTRESLEVEL
 70
     2
102
SHADEPLOTCUSTOMDPI
 70
   300
  0
XRECORD
  5
78E
102
{ACAD_REACTORS
330
78D
102
}
330
78D
100
AcDbXrecord
280
     1
310
28000000000100008D0000000100080000000000008D00000000000000000000000100000000000000000000FFFFFF00000000000000000000000000000000000000000000000000000000000000000000000000330000006600000099000000CC000000FF00000000330000333300006633000099330000CC330000FF3300
310
0000660000336600006666000099660000CC660000FF66000000990000339900006699000099990000CC990000FF99000000CC000033CC000066CC000099CC0000CCCC0000FFCC000000FF000033FF000066FF000099FF0000CCFF0000FFFF000000003300330033006600330099003300CC003300FF003300003333003333
310
33006633330099333300CC333300FF33330000663300336633006666330099663300CC663300FF66330000993300339933006699330099993300CC993300FF99330000CC330033CC330066CC330099CC3300CCCC3300FFCC330000FF330033FF330066FF330099FF3300CCFF3300FFFF330000006600330066006600660099
310
006600CC006600FF00660000336600333366006633660099336600CC336600FF33660000666600336666006666660099666600CC666600FF66660000996600339966006699660099996600CC996600FF99660000CC660033CC660066CC660099CC6600CCCC6600FFCC660000FF660033FF660066FF660099FF6600CCFF6600
310
FFFF660000009900330099006600990099009900CC009900FF00990000339900333399006633990099339900CC339900FF33990000669900336699006666990099669900CC669900FF66990000999900339999006699990099999900CC999900FF99990000CC990033CC990066CC990099CC9900CCCC9900FFCC990000FF99
310
0033FF990066FF990099FF9900CCFF9900FFFF99000000CC003300CC006600CC009900CC00CC00CC00FF00CC000033CC003333CC006633CC009933CC00CC33CC00FF33CC000066CC003366CC006666CC009966CC00CC66CC00FF66CC000099CC003399CC006699CC009999CC00CC99CC00FF99CC0000CCCC0033CCCC0066CC
310
CC0099CCCC00CCCCCC00FFCCCC0000FFCC0033FFCC0066FFCC0099FFCC00CCFFCC00FFFFCC000000FF003300FF006600FF009900FF00CC00FF00FF00FF000033FF003333FF006633FF009933FF00CC33FF00FF33FF000066FF003366FF006666FF009966FF00CC66FF00FF66FF000099FF003399FF006699FF009999FF00CC
310
99FF00FF99FF0000CCFF0033CCFF0066CCFF0099CCFF00CCCCFF00FFCCFF0000FFFF0033FFFF0066FFFF0099FFFF00CCFFFF00FFFFFF00000000000D0D0D001A1A1A00282828003535350043434300505050005D5D5D006B6B6B00787878008686860093939300A1A1A100AEAEAE00BBBBBB00C9C9C900D6D6D600E4E4E400
310
F1F1F100FFFFFF0000000000000000000000000000000000000000000000000000000000000000000000000000000000E2E2E2E2E2E2E2E2E2E2E2E2E2E2E2E2E2E2E2E2E2E2E2E2E2E2E2E2E2E2E2E2E2E2E2E2E2E2E2E2E2E2E2E2E2E2E2E2E2E2E2E2E2E2E2E2E2E2E2E2E2E2E2E2E2E2E2E2E2E2E2E2E2E2E2E2E2E2E2
310
E2E2E2E2E2E2E2E2E2E2E2E2E2E2E2E2E2E2E2E2E2E2E2E2E2E2E2E2E2E2E2E2E2E2E2E2E2E2E2E2E2E2E2E2E2E2E2E2E2E2E2E2E2E2E2E2E2E2E2E2E2E2E2E2E2E2E2E2E2E2E2E2E2E2E2E2E2E2E2E2E2E2E2E2E2E2E2E2E2E2E2E2E2E2E2E2E2E2E2E2E2E2E2E2E2E2E2E2E2E2E2E2E2E2E2E2E2E2E2E2E2E2E2E2E2E2E2
310
E2E2E2E2E2E2E2E2E2E2E2E2E2E2E2E2E2E2E2E2E2E2E2E2E2E2E2E2E2E2E2E2E2E2E2E2E2E2E2E2E2E2E2E2E2E2E2E2E2E2E2E2E2E2E2E2E2E2E2E2E2E2E2E2E2E2E2E2E2E2E2E2E2E2E2E2E2E2E2E2E2E2E2E2E2E2F5F5F5F5F5F5F5F5F5F5F5F5F5F5F5F5F5F5F5F5F5F5F5F5F5F5F5F5F5F5F5F5F5F5F5F5F5F5F5F5F5
310
F5F5F5F5F5F5F5F5F5F5F5F5F5F5F5F5F5F5F5F5F5F5F5F5F5F5F5F5F5F5F5F5F5F5F5F5F5F5F5F5F5F5F5F5F5F5F5F5F5F5F5F5F5F5F5F5F5F5F5F5F5F5F5F5F5F5F5F5F5F5F5F5F5F5F5F5F5F5F5F5F5F5F5F5F5F5F5F5F5F5F5F5F5F5F5F5F5F5F5F5F5F5F5F5F5F5F5F5F5F5F5F5F5F5F5F5F5F5F5F5F5F5F5F5F5F5F5
310
F5F5F5F5F5F5F5F5F5F5F5F5F5F5F5F5E2E2E2E2E2E2E2E2E2E2E2E2E2E2E2E2E2E2E2E2E2E2E2E2E2E2E2E2E2E2E2E2E2E2E2E2E2E2E2E2E2E2E2E2E2E2E2E2E2E2E2E2E2E2E2E2E2E2E2E2E2E2E2E2E2E2E2E2E2E2E2E2F5E2E2E2E2E2E2E2E2E2E2E2E22D2D2D2D2D2D2D2D2D2D2D2D2D2D2D2D2D2D2D2D2D2D2D2D2D2D
310
2D2D2D2D2D2D2D2D2D2D2D2D2D2D2D2DE22D2D2D2D2D2D2D2D2D2D2D2D2D2DE2E2E2E2E2E2E2E2E2E2E2E2E2E2E2E2E2E2E2E2E2E2E2E2E2E2E2E2E2E2E2E2E2E2E2E2E2E2E2E2E2E2E2E2E2E2E2E2E2E2E2E2E2E2E2E2E2E2E2E2E2E2E2E2E2E2E2F5E2E2E2E2F5F5F5F5F5F5F5F5F5F5F5F5F5F5F5E2E2E2E2E2E2E2E2E2
310
E2F5E2F5F5F5F5F5F5E2E2F5E2F5E2E2E2F5E2E2E2E2E2E2E2E2E2E2E2E2E2E2E2E2E2E2E2E2E2E2E2E2E2E2E2E2E2E2E2E2E2E2E2E2E2E2E2E2E2E2E2E2E2E2E2E2E2E2E2E2E2E2E2E2E2E2E2E2E2E2E2E2E2E2E2E2E2E2E2E2F5E2E2E2E2E2E2E2E2E2E2E2E22D2D2D2D2D2D2D2D2D2D2D2D2D2D2D2D2D2D2D2D2D2D2D2D
310
2D2D2D2D2D2D2D2D2D2D2D2D2D2D2D2D2D2D2D2D2D2D2D2D2D2D2D2D2D2D2D2D2D2D2D2DE22D2D2D2D2D2D2DE2E2E2E2E2E2E2E2E2E2E2E2E2E2E2E2E2E2E2E2E2E2E2E2E2E2E2E2E2E2E2E2E2E2E2E2E2E2E2E2E2E2E2E2E2E2E2E2E2E2E2E2E2E2E2E2F5E2E2E2E2F5F5F5F5F5F5F5F5F5F5F5F5F5F5F5E2E2E2E2E2E2E2
310
E2E2E2F5E2F5F5F5F5E2F5E2E2F5E2F5E2E2E2F5E2E2E2E2E2E2E2E2E2E2E2E2E2E2E2E2E2E2E2E2E2E2E2E2E2E2E2E2E2E2E2E2E2E2E2E2E2E2E2E2E2E2E2E2E2E2E2E2E2E2E2E2E2E2E2E2E2E2E2E2E2E2E2E2E2E2E2E2E2E2E2E2F5E2E2E2E2E2E2E2E2E2E2E2E2E2E2E2E22D2D2D2D2D2DE22D2D2D2D2D2D2D2DE22D2D
310
2D2D2D2D2D2DE22D2D2D2D2D2D2D2DE22D2D2D2D2D2D2DE22D2D2D2D2D2D2D2DE22D2D2D2D2DE22D2D2D2D2D2D2DE2E2E2E2E2E2E2E2E2E2E2E2E2E2E2E2E2E2E2E2E2E2E2E2E2E2E2E2E2E2E2E2E2E2E2E2E2E2E2E2E2E2E2E2E2E2E2E2E2E2E2E2E2E2E2E2F5F5F5F5F5F5F5F5F5F5F5F5F5F5F5F5F5F5F5F5F5F5F5F5F5
310
F5F5F5F5F5F5F5F5F5F5F5F5F5F5F5F5F5F5F5F5F5F5E2E2E2E2E2E2E2E2E2E2E2E2E2E2E2E2E2E2E2E2E2E2E2E2E2E2E2E2E2E2E2E2E2E2E2E2E2E2E2E2E2E2E2E2E2E2E2E2E2E2E2E2E2E2E2E2E2E2E2E2E2E2E2E2E2E2E2E2E2E2E2E2F5E2E2E2E2E2E2E2E2E2E2E2E22D2D2D2D2D2D2D2D2D2D2D2D2D2D2D2D2D2D2D2D
310
2D2D2D2D2D2D2D2D2D2D2D2D2D2D2D2D2D2D2D2D2D2D2D2D2D2D2D2D2D2D2D2D2D2D2D2D2D2D2D2D2D2D2D2D2D2D2D2DE2E2E2E2E2E2E2E2E2E2E2E2E2E2E2E2E2E2E2E2E2E2E2E2E2E2E2E2E2E2E2E2E2E2E2E2E2E2E2E2E2E2E2E2E2E2E2E2E2E2E2E2E2E2E2E2F5E2E2E2E2E2E2E2E2E2E2E2F5E2E2E2E2E2F5E2E2E2E2
310
E2E2E2E2E2E2E2E2E2E2E2E2E2E2E2F5E2E2E2E2E2E2E2F5E2E2E2E2E2E2E2E2E2E2E2E2E2E2E2E2E2E2E2E2E2E2E2E2E2E2E2E2E2E2E2E2E2E2E2E2E2E2E2E2E2E2E2E2E2E2E2E2E2E2E2E2E2E2E2E2E2E2E2E2E2E2E2E2E2E2E2E2E2E2E2E2F5E2E2E2E2E2E2E2E2E2E2E2E22D2D2D2D2DE22D2D2D2D2D2D2D2D2D2D2D2D
310
2D2D2D2D2D2D2D2D2D2D2DE22D2D2D2D2D2DE22D2D2D2D2D2D2DE22D2D2D2D2D2D2D2D2D2D2D2D2D2D2D2D2D2D2D2D2D2D2D2DE2E2E2E2E2E2E2E2E2E2E2E2E2E2E2E2E2E2E2E2E2E2E2E2E2E2E2E2E2E2E2E2E2E2E2E2E2E2E2E2E2E2E2E2E2E2E2E2E2E2E2E2E2E2E2F5E2E2E2E2E2E2E2F5F5F5E2F5E2E2F5E2E2F5E2E2
310
E2E2E2E2F5F5F5F5F5E2E2E2E2E2E2E2E2F5E2E2F5F5E2E2E2F5E2E2E2E2E2E2E2E2E2E2E2E2E2E2E2E2E2E2E2E2E2E2E2E2E2E2E2E2E2E2E2E2E2E2E2E2E2E2E2E2E2E2E2E2E2E2E2E2E2E2E2E2E2E2E2E2E2E2E2E2E2E2E2E2E2E2E2E2E2E2E2E2F5E2E2E2E2E2E2E2E2E2E2E2E22D2D2D2D2D2D2D2D2D2D2D2D2D2D2D2D
310
2D2D2D2D2D2D2D2D2D2D2D2D2D2D2D2D2D2D2D2D2D2D2D2D2D2D2D2D2D2D2D2D2D2D2D2D2D2D2D2D2D2D2D2D2D2D2D2D2D2D2D2D2DE2E2E2E2E2E2E2E2E2E2E2E2E2E2E2E2E2E2E2E2E2E2E2E2E2E2E2E2E2E2E2E2E2E2E2E2E2E2E2E2E2E2E2E2E2E2E2E2E2E2E2E2E2E2E2F5E2E2E2E2E2E2E2F5F5F5E2F5E2E2F5E2E2F5
310
E2E2E2E2E2E2F5F5F5F5F5E2E2E2E2E2E2E2E2F5E2E2E2F5E2E2E2F5E2E2E2E2E2E2E2E2E2E2E2E2E2E2E2E2E2E2E2E2E2E2E2E2E2E2E2E2E2E2E2E2E2E2E2E2E2E2E2E2E2E2E2E2E2E2E2E2E2E2E2E2E2E2E2E2E2E2E2E2E2E2E2E2E2E2E2E2E2E2E2E2F5E2E2E2E2E2E2E2E2E2E2E2E22D2D2D2D2D2D2D2D2D2DE22D2D2D
310
2D2D2DE22D2D2D2D2DE22D2D2D2DE22D2D2D2DE22D2D2D2D2D2D2D2D2D2D2D2D2D2D2D2D2D2DE22D2D2D2DE22D2D2D2D2DE2E2E2E2E2E2E2E2E2E2E2E2E2E2E2E2E2E2E2E2E2E2E2E2E2E2E2E2E2E2E2E2E2E2E2E2E2E2E2E2E2E2E2E2E2E2E2E2E2E2E2E2E2E2E2E2E2E2E2E2E2F5F5F5F5F5E2E2E2F5F5F5E2F5E2F5F5F5
310
E2F5E2E2E2F5F5F5F5F5F5F5F5E2E2E2E2E2E2E2E2F5F5F5E2E2E2E2E2F5E2E2E2E2E2E2E2E2E2E2E2E2E2E2E2E2E2E2E2E2E2E2E2E2E2E2E2E2E2E2E2E2E2E2E2E2E2E2E2E2E2E2E2E2E2E2E2E2E2E2E2E2E2E2E2E2E2E2E2E2E2E2E2E2E2E2E2E2E2E2E2E2F5E2E2E22D2DE22D2D2D2D2D2D2D2D2D2D2D2D2D2D2D2D2D2D
310
2D2D2D2D2D2D2D2D2D2D2D2D2D2D2D2D2D2D2D2D2D2D2D2D2D2D2D2D2D2D2D2D2D2D2D2D2D2D2D2DE22D2D2D2DE22D2D2D2DE2E2E2E2E2E2E2E2E2E2E2E2E2E2E2E2E2E2E2E2E2E2E2E2E2E2E2E2E2E2E2E2E2E2E2E2E2E2E2E2E2E2E2E2E2E2E2E2E2E2E2E2E2E2E2E2E2E2E2E2E2E2F5F5F5F5F5E2E2E2E2E2E2E2F5F5F5
310
F5F5E2F5E2E2E2F5F5F5F5F5F5F5F5E2E2E2E2E2E2E2E2F5F5F5E2E2E2E2E2F5E2E2E2E2E2E2E2E2E2E2E2E2E2E2E2E2E2E2E2E2E2E2E2E2E2E2E2E2E2E2E2E2E2E2E2E2E2E2E2E2E2E2E2E2E2E2E2E2E2E2E2E2E2E2E2E2E2E2E2E2E2E2E2E2E2E2E2E2E2E2E2E2F5E2E2E22D2DE22D2D2D2D2D2D2D2D2D2D2D2D2D2D2DE2
310
2D2D2D2D2D2D2D2D2DE22D2D2D2D2D2D2D2D2D2D2D2D2D2D2D2D2D2D2D2DE22D2D2DE22D2D2D2D2D2D2DE2E2E2E2E2E2E2E2E2E2E2E2E2E2E2E2E2E2E2E2E2E2E2E2E2E2E2E2E2E2E2E2E2E2E2E2E2E2E2E2E2E2E2E2E2E2E2E2E2E2E2E2E2E2E2E2E2E2E2E2E2E2E2E2E2E2E2E2E2E2E2E2F5F5F5F5F5F5F5F5F5F5F5F5F5
310
F5F5F5F5F5F5F5F5F5F5F5F5F5F5F5F5F5F5F5F5F5F5F5F5F5F5F5F5F5F5F5F5F5F5E2E2E2E2E2E2E2E2E2E2E2E2E2E2E2E2E2E2E2E2E2E2E2E2E2E2E2E2E2E2E2E2E2E2E2E2E2E2E2E2E2E2E2E2E2E2E2E2E2E2E2E2E2E2E2E2E2E2E2E2E2E2E2E2E2E2E2E2E2E2E2E2F5E2E2E22D2DE22D2D2D2D2D2D2D2D2D2D2D2D2D2D
310
2D2D2D2D2D2D2D2D2D2D2D2D2D2D2D2D2D2D2D2D2D2D2D2D2D2D2D2D2D2D2D2D2D2D2D2D2D2D2D2D2D2D2D2D2DE22D2D2D2D2D2D2D2D2D2D2DE2E2E2E2E2E2E2E2E2E2E2E2E2E2E2E2E2E2E2E2E2E2E2E2E2E2E2E2E2E2E2E2E2E2E2E2E2E2E2E2E2E2E2E2E2E2E2E2E2E2E2E2E2E2E2E2E2E2E2F5E2E2E2E2E2E2E2F5F5F5
310
F5E2F5E2F5F5F5F5F5E2F5F5E2F5F5F5F5F5F5F5E2E2E2E2E2E2E2E2E2E2E2E2E2E2E2F5E2E2E2E2E2E2E2E2E2E2E2E2E2E2E2E2E2E2E2E2E2E2E2E2E2E2E2E2E2E2E2E2E2E2E2E2E2E2E2E2E2E2E2E2E2E2E2E2E2E2E2E2E2E2E2E2E2E2E2E2E2E2E2E2E2E2E2E2E2E2E2E2F5E2E2E2E2E2E2E2E22DE22D2D2DE22D2D2D2D
310
2D2D2D2D2D2D2D2D2DE22D2D2D2D2D2D2D2DE22D2D2D2D2D2D2D2D2DE22D2D2D2D2D2D2D2D2D2DE22D2D2D2D2D2D2DE22D2D2D2D2D2D2D2D2D2DE2E2E2E2E2E2E2E2E2E2E2E2E2E2E2E2E2E2E2E2E2E2E2E2E2E2E2E2E2E2E2E2E2E2E2E2E2E2E2E2E2E2E2E2E2E2E2E2E2E2E2E2E2E2E2E2E2E2E2E2F5E2E2E2E2E2E2E2F5
310
F5F5F5F5F5E2F5F5F5F5F5E2F5F5F5F5F5F5F5F5F5E2E2E2E2E2E2E2E2E2E2E2E2E2E2E2E2F5E2E2E2E2E2E2E2E2E2E2E2E2E2E2E2E2E2E2E2E2E2E2E2E2E2E2E2E2E2E2E2E2E2E2E2E2E2E2E2E2E2E2E2E2E2E2E2E2E2E2E2E2E2E2E2E2E2E2E2E2E2E2E2E2E2E2E2E2E2E2E2E2F5E2E2E2E2E2E2E22D2DE22D2D2D2D2D2D
310
2D2D2D2D2D2D2D2D2D2D2D2D2D2D2D2D2D2D2D2D2D2D2D2D2D2D2D2D2D2D2D2D2D2D2D2D2D2D2D2D2DE22D2D2D2D2D2D2D2D2D2D2D2D2D2D2D2D2D2DE2E2E2E2E2E2E2E2E2E2E2E2E2E2E2E2E2E2E2E2E2E2E2E2E2E2E2E2E2E2E2E2E2E2E2E2E2E2E2E2E2E2E2E2E2E2E2E2E2E2E2E2E2E2E2E2E2E2E2E2F5E2E2E2E2E2E2
310
E2F5F5F5F5F5F5E2F5F5F5F5F5F5F5F5F5F5F5F5F5F5F5F5E2E2E2E2E2E2E2E2E2E2E2E2E2E2E2F5E2E2E2E2E2E2E2E2E2E2E2E2E2E2E2E2E2E2E2E2E2E2E2E2E2E2E2E2E2E2E2E2E2E2E2E2E2E2E2E2E2E2E2E2E2E2E2E2E2E2E2E2E2E2E2E2E2E2E2E2E2E2E2E2E2E2E2E2E2E2E2E2F5E2E2E2E2E2E2E22D2DE22D2D2D2D
310
E22D2D2D2D2D2DE22D2D2DE22D2D2D2D2D2DE22D2D2D2D2D2D2D2D2D2DE22D2D2D2D2D2D2D2D2D2D2DE2E2E2E2E2E2E2E2E2E2E2E2E2E2E2E2E2E2E2E2E2E2E2E2E2E2E2E2E2E2E2E2E2E2E2E2E2E2E2E2E2E2E2E2E2E2E2E2E2E2E2E2E2E2E2E2E2E2E2E2E2E2E2E2E2E2E2E2E2E2E2E2E2E2E2E2E2E2E2E2E2F5F5F5F5F5
310
E2E2E2E2F5F5F5F5F5F5F5F5E2F5F5F5F5F5F5F5F5F5E2F5F5F5E2E2E2E2E2E2E2E2E2E2E2E2E2E2E2F5E2E2E2E2E2E2E2E2E2E2E2E2E2E2E2E2E2E2E2E2E2E2E2E2E2E2E2E2E2E2E2E2E2E2E2E2E2E2E2E2E2E2E2E2E2E2E2E2E2E2E2E2E2E2E2E2E2E2E2E2E2E2E2E2E2E2E2E2E2E2E2E2F5E2E2E2E2E2E2E22D2DE22D2D
310
2D2D2D2D2D2D2D2D2D2D2D2D2D2D2D2D2D2D2D2D2D2D2D2D2D2D2D2D2D2D2D2D2D2D2D2D2D2D2D2D2D2D2D2D2D2D2D2D2D2DE22D2D2D2DE22D2D2D2DE2E2E2E2E2E2E2E2E2E2E2E2E2E2E2E2E2E2E2E2E2E2E2E2E2E2E2E2E2E2E2E2E2E2E2E2E2E2E2E2E2E2E2E2E2E2E2E2E2E2E2E2E2E2E2E2E2E2E2E2E2E2E2E2F5F5F5
310
F5F5E2E2E2E2F5F5F5F5F5F5F5F5E2F5F5F5F5F5F5F5F5F5E2F5F5F5E2E2E2E2E2E2E2E2E2E2E2E2E2E2E2F5E2E2E2E2E2E2E2E2E2E2E2E2E2E2E2E2E2E2E2E2E2E2E2E2E2E2E2E2E2E2E2E2E2E2E2E2E2E2E2E2E2E2E2E2E2E2E2E2E2E2E2E2E2E2E2E2E2E2E2E2E2E2E2E2E2E2E2E2E2E2E2E2F5E2E2E2E2E2E2E22D2DE2
310
2D2D2D2DE22D2D2D2D2D2D2D2D2D2D2D2D2DE22D2D2D2DE22D2D2D2D2D2D2D2D2D2D2D2D2D2D2D2D2D2D2D2D2D2D2D2D2D2D2D2DE22D2D2D2DE22D2D2DE2E2E2E2E2E2E2E2E2E2E2E2E2E2E2E2E2E2E2E2E2E2E2E2E2E2E2E2E2E2E2E2E2E2E2E2E2E2E2E2E2E2E2E2E2E2E2E2E2E2E2E2E2E2E2E2E2E2E2E2E2E2E2E2E2F5
310
F5F5F5F5F5F5F5F5F5F5F5F5F5F5F5F5F5F5F5F5F5F5F5F5F5F5F5F5F5F5F5F5F5F5F5F5F5F5F5F5F5F5F5F5F5F5E2E2E2E2E2E2E2E2E2E2E2E2E2E2E2E2E2E2E2E2E2E2E2E2E2E2E2E2E2E2E2E2E2E2E2E2E2E2E2E2E2E2E2E2E2E2E2E2E2E2E2E2E2E2E2E2E2E2E2E2E2E2E2E2E2E2E2E2E2E2E2E2F5E2E2E2E2E2E2E22D
310
2DE22D2D2D2D2D2D2D2D2D2D2D2D2D2D2D2D2D2D2D2DE22D2D2D2D2D2D2DE22D2D2D2D2D2D2D2D2D2DE2E2E2E2E2E2E2E2E2E2E2E2E2E2E2E2E2E2E2E2E2E2E2E2E2E2E2E2E2E2E2E2E2E2E2E2E2E2E2E2E2E2E2E2E2E2E2E2E2E2E2E2E2E2E2E2E2E2E2E2E2E2E2E2E2E2E2E2E2E2E2E2E2E2E2E2E2E2E2E2E2E2E2E2E2E2
310
E2F5E2E2E2E2E2E2E2E2E2E2E2E2E2E2E2E2F50101010101010101010101F5E2E2E2E2E2E2E2E2E2E2E2E2E2E2E2E2F5E2E2E2E2E2E2E2E2E2E2E2E2E2E2E2E2E2E2E2E2E2E2E2E2E2E2E2E2E2E2E2E2E2E2E2E2E2E2E2E2E2E2E2E2E2E2E2E2E2E2E2E2E2E2E2E2E2E2E2E2E2E2E2E2E2E2E2E2E2E2E2E2F5E2E2E2E2E2E2
310
E2E22DE22D2D2D2D2D2D2D2D2D2D2D2D2D2D2D2DE22D2D2DE22D2D2D2D2D2D2DE22D2D2D2D2D2D2D2D2D2DE2E2E2E2E2E2E2E2E2E2E2E2E2E2E2E2E2E2E2E2E2E2E2E2E2E2E2E2E2E2E2E2E2E2E2E2E2E2E2E2E2E2E2E2E2E2E2E2E2E2E2E2E2E2E2E2E2E2E2E2E2E2E2E2E2E2E2E2E2E2E2E2E2E2E2E2E2E2E2E2E2E2E2E2
310
E2E2E2F5E2E2E2E2E2E2E2E2E2E2E2E2E2E2E2E2F50101000101010101010101F5E2E2E2E2E2E2E2E2E2E2E2E2E2E2E2E2F5E2E2E2E2E2E2E2E2E2E2E2E2E2E2E2E2E2E2E2E2E2E2E2E2E2E2E2E2E2E2E2E2E2E2E2E2E2E2E2E2E2E2E2E2E2E2E2E2E2E2E2E2E2E2E2E2E2E2E2E2E2E2E2E2E2E2E2E2E2E2E2E2F5E2E22D2D
310
2D2D2D2D2D2D2D2D2D2D2D2D2D2D2D2D2D2D2D2D2DE22D2D2D2D2D2D2D2D2DE22D2D2D2D2D2D2D2D2D2D2D2D2D2D2D2D2D2D2D2DE22D2D2D2D2D2D2D2D2D2D2DE2E2E2E2E2E2E2E2E2E2E2E2E2E2E2E2E2E2E2E2E2E2E2E2E2E2E2E2E2E2E2E2E2E2E2E2E2E2E2E2E2E2E2E2E2E2E2E2E2E2E2E2E2E2E2E2E2E2E2E2E2E2E2
310
E2E2E2E2E2F5E2E2E2E2E2E2E2E2E2E2E2E2E2E2E2E2F50101010101010101010000F5E2E2E2E2E2E2E2E2E2E2E2E2E2E2E2E2F5E2E2E2E2E2E2E2E2E2E2E2E2E2E2E2E2E2E2E2E2E2E2E2E2E2E2E2E2E2E2E2E2E2E2E2E2E2E2E2E2E2E2E2E2E2E2E2E2E2E2E2E2E2E2E2E2E2E2E2E2E2E2E2E2E2E2E2E2E2E2E2E2F5E2E2
310
2D2D2D2D2D2D2D2D2DE22D2D2D2D2D2D2D2D2D2D2D2D2D2D2D2D2D2D2D2D2D2D2DE22D2D2D2D2D2D2D2D2D2D2D2D2D2D2D2D2D2D2D2D2D2D2D2D2D2D2D2D2D2D2D2DE2E2E2E2E2E2E2E2E2E2E2E2E2E2E2E2E2E2E2E2E2E2E2E2E2E2E2E2E2E2E2E2E2E2E2E2E2E2E2E2E2E2E2E2E2E2E2E2E2E2E2E2E2E2E2E2E2E2E2E2E2
310
E2E2E2E2E2E2E2F5E2E2E2E2E2E2E2E2E2E2E2E2E2E2E2E2F50101010101000100010100F5E2E2E2E2E2E2E2E2E2E2E2E2E2E2E2E2F5E2E2E2E2E2E2E2E2E2E2E2E2E2E2E2E2E2E2E2E2E2E2E2E2E2E2E2E2E2E2E2E2E2E2E2E2E2E2E2E2E2E2E2E2E2E2E2E2E2E2E2E2E2E2E2E2E2E2E2E2E2E2E2E2E2E2E2E2E2E2E2E2F5
310
E2E22D2D2D2D2D2D2D2D2D2DE22D2D2D2D2D2D2D2D2D2D2D2D2D2D2D2D2D2D2D2D2D2D2D2D2D2D2D2D2D2D2D2D2D2D2D2D2D2D2D2D2D2D2D2D2D2D2D2D2D2D2D2D2D2D2D2D2D2DE2E2E2E2E2E2E2E2E2E2E2E2E2E2E2E2E2E2E2E2E2E2E2E2E2E2E2E2E2E2E2E2E2E2E2E2E2E2E2E2E2E2E2E2E2E2E2E2E2E2E2E2E2E2E2E2
310
E2E2E2E2E2E2E2E2E2F5E2E2E2E2E2E2E2E2E2E2E2E2E2E2E2E2F50000010001010101010101F5E2E2E2E2E2E2E2E2E2E2E2E2E2E2E2E2F5E2E2E2E2E2E2E2E2E2E2E2E2E2E2E2E2E2E2E2E2E2E2E2E2E2E2E2E2E2E2E2E2E2E2E2E2E2E2E2E2E2E2E2E2E2E2E2E2E2E2E2E2E2E2E2E2E2E2E2E2E2E2E2E2E2E2E2E2E2E2E2
310
E2F5E2E22D2D2D2D2D2D2D2D2D2DE22D2D2D2D2D2D2D2D2D2D2D2D2D2D2D2D2D2D2D2D2DE22D2D2D2D2D2D2D2D2D2D2D2D2D2D2D2D2D2D2DE22D2D2D2D2D2D2D2D2D2D2D2D2D2D2D2DE2E2E2E2E2E2E2E2E2E2E2E2E2E2E2E2E2E2E2E2E2E2E2E2E2E2E2E2E2E2E2E2E2E2E2E2E2E2E2E2E2E2E2E2E2E2E2E2E2E2E2E2E2E2
310
E2E2E2E2E2E2E2E2E2E2E2F5E2E2E2E2E2E2E2E2E2E2E2E2E2E2E2E2F50001000101010101010101F5E2E2E2E2E2E2E2E2E2E2E2E2E2E2E2E2F5E2E2E2E2E2E2E2E2E2E2E2E2E2E2E2E2E2E2E2E2E2E2E2E2E2E2E2E2E2E2E2E2E2E2E2E2E2E2E2E2E2E2E2E2E2E2E2E2E2E2E2E2E2E2E2E2E2E2E2E2E2E2E2E2E2E2E2E2E2
310
E2E2E2F5E2E22D2D2D2D2D2DE22D2D2D2DE22D2D2D2D2D2D2D2D2D2DE22D2D2D2D2D2D2DE22D2D2D2D2D2D2D2D2D2D2D2D2D2DE22D2D2D2D2D2D2DE22D2D2D2D2D2D2DE22D2D2D2D2D2D2D2D2D2D2D2D2D2D2DE2E2E2E2E2E2E2E2E2E2E2E2E2E2E2E2E2E2E2E2E2E2E2E2E2E2E2E2E2E2E2E2E2E2E2E2E2E2E2E2E2E2E2E2
310
E2E2E2E2E2E2E2E2E2E2E2E2E2F5F5F5F5F5F5F5F5F5F5F5F5F5F5F5F5F5F5F5F5F5F5F5F5F5F5F5F5F5F5F5F5F5F5F5F5F5F5F5F5F5F5F5F5F5F5F5E2E2E2E2E2E2E2E2E2E2E2E2E2E2E2E2E2E2E2E2E2E2E2E2E2E2E2E2E2E2E2E2E2E2E2E2E2E2E2E2E2E2E2E2E2E2E2E2E2E2E2E2E2E2E2E2E2E2E2E2E2E2E2E2E2E2E2
310
E2E2E2E2E2F5E2E22D2D2D2D2D2D2D2D2D2D2DE22D2D2D2D2D2D2D2D2D2DE22D2D2D2D2D2D2DE22D2D2D2D2D2D2D2D2D2D2D2D2D2DE22D2D2D2D2D2D2D2D2D2D2D2D2D2D2D2D2D2D2D2D2D2D2D2D2D2D2D2D2D2DE2E2E2E2E2E2E2E2E2E2E2E2E2E2E2E2E2E2E2E2E2E2E2E2E2E2E2E2E2E2E2E2E2E2E2E2E2E2E2E2E2E2E2
310
E2E2E2E2E2E2E2E2E2E2E2E2E2E2E2E2E2E2E2E2E2E2E2E2E2E2E2E2E2E2E2E2E2E2E2E2E2E2E2E2E2E2E2E2E2E2E2E2E2E2E2E2E2E2E2E2E2E2E2E2E2F5E2E2E2E2E2E2E2E2E2E2E2E2E2E2E2E2E2E2E2E2E2E2E2E2E2E2E2E2E2E2E2E2E2E2E2E2E2E2E2E2E2E2E2E2E2E2E2E2E2E2E2E2E2E2E2E2E2E2E2E2E2E2E2E2E2
310
E2E2E2E2E2E2E2F5E2E22D2D2D2D2D2D2D2D2D2D2DE22D2D2D2D2DE22D2D2D2D2D2D2D2D2D2D2D2D2D2D2D2D2DE22D2D2D2D2D2D2D2D2D2D2D2D2D2D2D2D2D2DE2E2E2E2E2E2E2E2E2E2E2E2E2E2E2E2E2E2E2E2E2E2E2E2E2E2E2E2E2E2E2E2E2E2E2E2E2E2E2E2E2E2E2E2E2E2E2E2E2E2E2E2E2E2E2E2E2E2E2E2E20F0F
310
0F0F0F0FE20F0F0F0F0F0F0F0F0FE2E2E20F0F0F0FE20F0F0FE2E2E2E2E2E2E2E2E2E2E2E2E2E2E2E2E2E2E2E2E2E2E2E2E2E2E2E2E2E2E2E2E2E2E2E2E2E2F5E2E2E2E2E2E2E2E2E2E2E2E2E2E2E2E2E2E2E2E2E2E2E2E2E2E2E2E2E2E2E2E2E2E2E2E2E2E2E2E2E2E2E2E2E2E2E2E2E2E2E2E2E2E2E2E2E2E2E2E2E2E2E2
310
E2E2E2E2E2E2E2E2E2F5E2E2E22D2D2D2D2D2D2D2D2D2DE22D2D2D2D2DE22D2D2D2D2D2D2D2D2D2D2D2D2D2D2D2D2D2D2D2D2D2D2D2D2D2D2D2D2D2D2D2D2D2D2DE2E2E2E2E2E2E2E2E2E2E2E2E2E2E2E2E2E2E2E2E2E2E2E2E2E2E2E2E2E2E2E2E2E2E2E2E2E2E2E2E2E2E2E2E2E2E2E2E2E2E2E2E2E2E2E2E2E2E2E2E2E2
310
0F0F0F0F0FE2E20F0F0F0F0F0F0F0F0FE2E2E20F0F0F0F0F0F0F0F0F0F0F0F0F0F0F0FE2E2E20F0F0F0F0FE2E2E2E2E2E2E2E2E2E2E2E2E2E2E2E2E2E2E2E2E2E2F5E2E2E2E2E2E2E2E2E2E2E2E2E2E2E2E2E2E2E2E2E2E2E2E2E2E2E2E2E2E2E2E2E2E2E2E2E2E2E2E2E2E2E2E2E2E2E2E2E2E2E2E2E2E2E2E2E2E2E2E2E2
310
E2E2E2E2E2E2E2E2E2E2E2F5E2E22D2D2D2D2D2D2D2D2D2D2D2D2D2D2D2D2DE22D2D2D2D2D2D2D2D2D2D2D2D2D2D2D2D2D2D2D2D2D2D2D2DE2E2E2E2E2E2E2E2E2E2E2E2E2E2E2E2E2E2E2E2E2E2E2E2E2E2E2E2E2E2E2E2E2E2E2E2E2E2E2E2E2E2E2E2E2E2E2E2E2E2E2E2E2E2E2E2E2E2E2E2E2E2E2E2E2E2E2E2E2E2E2
310
E2E20F0F0F0F0F0FE20F0F0F0F0F0F0F0F0F0F0F0F0F0F0F0F0F0F0F0FE2E2E2E2E20F0F0FE2E2E20F0F0FE2E2E2E2E2E2E2E2E2E2E2E2E2E2E2E2E2E2E2E2E2E2E2E2F5E2E2E2E2E2E2E2E2E2E2E2E2E2E2E2E2E2E2E2E2E2E2E2E2E2E2E2E2E2E2E2E2E2E2E2E2E2E2E2E2E2E2E2E2E2E2E2E2E2E2E2E2E2E2E2E2E2E2E2
310
E2E2E2E2E2E2E2E2E2E2E2E2E2F5E2E22D2D2D2D2D2D2D2D2D2D2D2D2D2D2D2D2D2D2D2D2D2D2D2D2D2D2D2D2D2D2D2D2D2D2D2D2D2D2D2D2D2D2D2D2D2D2DE22D2D2D2DE22D2D2D2D2D2D2D2D2D2D2D2D2D2D2D2D2D2D2D2D2D2D2D2D2DE2E2E2E2E2E2E2E2E2E2E2E2E2E2E2E2E2E2E2E2E2E2E2E2E2E2E2E2E2E2E2E2E2
310
E2E2E2E2E2E2E20F0F0F0FE20F0F0F0F0FE2E2E2E2E20FE2E2E2E2E2E2E2E2E2E2E2E2E2E2E20FE2E2E20FE2E2E2E2E2E2E2E2E2E2E2E2E2E2E2E2E2E2E2E2E2E2E2E2E2E2F5E2E2E2E2E2E2E2E2E2E2E2E2E2E2E2E2E2E2E2E2E2E2E2E2E2E2E2E2E2E2E2E2E2E2E2E2E2E2E2E2E2E2E2E2E2E2E2E2E2E2E2E2E2E2E2E2E2
310
E2E2E2E2E2E2E2E2E2E2E2E2E2E2E2F5E2E2E2E2E2E22D2D2D2D2D2DE22D2D2D2D2D2D2D2D2D2D2D2D2D2D2D2D2D2DE22D2DE22D2D2D2D2DE22D2D2D2D2D2D2D2D2D2D2D2D2D2D2D2D2D2D2D2D2D2D2D2D2D2D2D2D2D2D2D2D2D2D2D2D2D2D2DE2E2E2E2E2E2E2E2E2E2E2E2E2E2E2E2E2E2E2E2E2E2E2E2E2E2E2E2E2E2E2
310
E2E2E2E2E2E2E2E2E20F0F0F0F0F0F0F0F0F0F0FE2E2E2E20FE2E2E2E2E2E2E2E2E2E2E2E2E2E2E20FE2E2E20FE2E2E20FE20F0FE2E2E2E2E2E20F0F0FE2E20FE2E2E2E2E2E2E2F5E2E2E2E2E2E2E2E2E2E2E2E2E2E2E2E2E2E2E2E2E2E2E2E2E2E2E2E2E2E2E2E2E2E2E2E2E2E2E2E2E2E2E2E2E2E2E2E2E2E2E2E2E2E2E2
310
E2E2E2E2E2E2E2E2E2E2E2E2E2E2E2E2E2F5E2E22D2DE22D2D2D2D2D2D2DE22D2D2D2D2D2D2D2D2D2D2D2D2D2D2D2D2D2D2D2D2D2D2D2D2D2D2D2D2D2D2D2D2D2D2D2D2D2D2D2D2D2D2D2D2D2D2D2D2D2D2D2D2D2D2D2D2D2D2D2D2D2D2D2D2D2D2DE2E2E2E2E2E2E2E2E2E2E2E2E2E2E2E2E2E2E2E2E2E2E2E2E2E2E2E2E2
310
E2E2E2E2E2E2E2E2E2E2E20F0F0F0F0F0F0F0F0F0F0FE2E2E20F0FE2E2E2E2E2E2E2E2E2E2E2E2E2E2E20FE2E2E20FE20F0F0F0F0F0F0F0F0F0F0F0F0F0F0FE2E20FE2E2E2E2E2E2E2F5E2E2E2E2E2E2E2E2E2E2E2E2E2E2E2E2E2E2E2E2E2E2E2E2E2E2E2E2E2E2E2E2E2E2E2E2E2E2E2E2E2E2E2E2E2E2E2E2E2E2E2E2E2
310
E2E2E2E2E2E2E2E2E2E2E2E2E2E2E2E2E2E2E2F5E2E22D2D2D2D2D2D2D2D2D2DE22D2D2D2D2D2D2D2D2D2DE22D2D2D2D2D2D2D2D2D2D2DE22D2D2D2D2D2D2D2D2D2D2D2D2D2D2D2D2D2D2DE22D2D2D2D2D2D2D2D2D2D2D2D2D2D2DE2E2E2E2E2E2E2E2E2E2E2E2E2E2E2E2E2E2E2E2E2E2E2E2E2E2E2E2E2E2E2E2E2E2E2E2
310
E2E2E2E2E2E2E2E2E2E2E2E2E2E2E2E2E2E2E2E2E2E2E2E2E2E2E2E20FE2E2E2E2E2E2E2E2E2E2F5E2E2E2E20FE2E2E20FE20FE2E2F5E2E2E20FE2E2E2E20F0F0FE2E20F0FE2E2E2E2E2E2F5E2E2E2E2E2E2E2E2E2E2E2E2E2E2E2E2E2E2E2E2E2E2E2E2E2E2E2E2E2E2E2E2E2E2E2E2E2E2E2E2E2E2E2E2E2E2E2E2E2E2E2
310
E2E2E2E2E2E2E2E2E2E2E2E2E2E2E2E2E2E2E2E2E2F5E2E22D2DE22D2D2D2D2D2D2D2D2D2D2D2D2D2D2D2D2D2D2D2D2D2D2D2D2D2D2D2D2D2DE22D2D2D2D2D2D2D2D2D2D2D2DE22D2D2D2DE2E2E22D2D2D2D2D2D2D2D2D2D2D2D2D2D2D2DE2E2E2E2E2E2E2E2E2E2E2E2E2E2E2E2E2E2E2E2E2E2E2E2E2E2E2E2E2E2E2E2E2
310
E2E2E2E2E2E2E2E2E2E2E2E2E2E2E2E2E2E2E2E2E2E2E2E2E2E2E2E20F0F0F0F0F0F0F0F0FF5F5F5F5F5F5F5F5F50FE2E2E20FF50FF5F5F5F5F5F50FF5E2E2E2E2E2E2E2E20F0FE2E2E2E2E2E2F5E2E2E2E2E2E2E2E2E2E2E2E2E2E2E2E2E2E2E2E2E2E2E2E2E2E2E2E2E2E2E2E2E2E2E2E2E2E2E2E2E2E2E2E2E2E2E2E2E2
310
E2E2E2E2E2E2E2E2E2E2E2E2E2E2E2E2E2E2E2E2E2E2E2F5E2E2E2E2E2E22D2D2D2D2D2D2D2D2D2D2DE22D2D2DE2E2E2E2E2E2E2E2E2E2E2E2E2E2E2E2E2E2E2E2E2E2E2E2E2E2E2E2E2E2E2E2E2E2E2E2E2E2E2E2E2E2E2E2E2E2E2E2E2E2E2E2E2E2E2E2E2E2E2E2E2E2E2E2E2E2E2E2E2E2E2E2E2E2E2E2E2E2E2E2E2E2
310
E2E2E2E2E2E2E2E2E2E2E2E2E2E2E2E2E2E2E2E2E2E2E2E2E2E2E2E2E2E20F0F0F0F0F0F0F0F0F0FF5F5F5F5F5F5F5F5F5E2E2E2F5E20FF5F5F5F5F5F50F0F0F0F0F0F0F0F0F0F0F0F0F0F0FE2E2E2F5E2E2E2E2E2E2E2E2E2E2E2E2E2E2E2E2E2E2E2E2E2E2E2E2E2E2E2E2E2E2E2E2E2E2E2E2E2E2E2E2E2E2E2E2E2E2E2
310
E2E2E2E2E2E2E2E2E2E2E2E2E2E2E2E2E2E2E2E2E2E2E2E2E2F5E2E2E2E2E2E22D2D2D2D2D2D2D2D2D2D2D2D2D2D2D2D2D2D2D2D2D2D2D2D2D2D2D2D2D2D2D2D2D2D2D2D2D2D2D2DE22D2D2D2DE2E2E2E2E2E2E2E2E2E2E2E2E2E2E2E2E2E2E2E2E2E2E2E2F5F5F5F5F5F5F5F5F5E2E2E2E2E2E2E2E2E2E2E2E2E2E2E2E2E2
310
E2E2E2E2E2E2E2E2E2E2E2E2E2E2E2E2E2E2E2E2E2E2E2E2E2E2E2E2E2E2E2E2E2E20FE2E2E2E2E2F5E2F5E2E2F5E2E2E2F5F5E2E2E2F5E2F5E2E2F5E2E2E2F5F5E2E2E2E2E2E2E2E2E2E2E2E20FE2E2E2F5E2E2E2E2E2E2E2E2E2E2E2E2E2E2E2E2E2E2E2E2E2E2E2E2E2E2E2E2E2E2E2E2E2E2E2E2E2E2E2E2E2E2E2E2E2
310
E2E2E2E2E2E2E2E2E2E2E2E2E2E2E2E2E2E2E2E2E2E2E2E2E2E2E2F5E2E2E2E2E2E22D2D2D2D2D2D2D2D2D2D2D2D2D2DE22D2D2D2D2D2D2D2D2D2D2D2D2D2D2D2D2D2D2D2D2D2D2D2D2DE22D2D2D2DE2E2E2E2E2E2E2E2E2E2E2E2E2E2E2E2E2E2E2E2E2E2F5F5E2E2E2E2E2E2E2E2F5F5F5E2E2E2E2E2E2E2E2E2E2E2E2E2
310
E2E2E2E2E2E2E2E2E2E2E2E2E2E2E2E2E2E2E2E2E2E2E2E2E2E2E2E2E2E2E2E2E2E2E20F0FE2E2E2E2E2F5E2F5E2E2F5E2E2E2F5F5E2E2E2F5E2F5E2E2F5E2E2E2F5F5E2E2E2E2E2E2E20F0F0F0FE20F0FE2E2F5E2E2E2E2E2E2E2E2E2E2E2E2E2E2E2E2E2E2E2E2E2E2E2E2E2E2E2E2E2E2E2E2E2E2E2E2E2E2E2E2E2E2E2
310
E2E2E2E2E2E2E2E2E2E2E2E2E2E2E2E2E2E2E2E2E2E2E2E2E2E2E2E2E2F5E2E22D2D2D2D2D2D2D2D2D2D2D2D2D2D2D2D2D2D2D2D2D2D2D2D2D2D2D2D2D2D2D2D2D2D2D2D2D2D2D2D2D2D2D2D2D2D2D2D2DE2E2E2E2E2E2E2E2E2E2E2E2E2E2E2E2E2E2E2E2F5F5E2E2E2E2E2E2E2E2E2E2E2E2E2F5F5E2E2E2E2E2E2E2E2E2
310
E2E2E2E2E2E2E2E2E2E2E2E2E2E2E2E2E2E2E2E2E2E2E2E2E2E2E2E2E2E2E2E2E2E2E2E2E20F0FE2E2E2E2E2F5E2F5E2E2F5E2E2E2F5F5E2E2E2F5E2F5E2E2F5E2E2E2F5F5E2E2E2E2E2E2E2E20F0F0FE20F0FE2E2F5E2E2E2E2E2E2E2E2E2E2E2E2E2E2E2E2E2E2E2E2E2E2E2E2E2E2E2E2E2E2E2E2E2E2E2E2E2E2E2E2E2
310
E2E2E2E2E2E2E2E2E2E2E2E2E2E2E2E2E2E2E2E2E2E2E2E2E2E2E2E2E2E2E2F5E2E22D2DE22D2D2D2D2D2D2D2DE22D2D2D2D2D2D2D2D2D2D2D2D2D2D2D2D2D2D2D2DE22D2D2D2D2D2D2DE2E2E2E2E2E2E2E2E2E2E2E2E2E2E2E2E2E2E2E2E2E2E2E2E20FE2E2F5E2E2E2E2E2E2E2E2E2E2E2E2E2E2E2E2F5F5E2E2E2E2E2E2
310
E2E2E2E2F5F5E2E2E2E2E2E2E2E2E2E2E2E2E2E2E2E2E2E2E2E2E2E2E2E2E2E2E2E2E2E2E2E2E2E20FE2E2E2E2E2F5E2F5E2E2F5E2E2E2F5F5E2E2E2F5E2F5E2E2F5E2E2E2F5F5E2E2E2E2E2E2E2E20F0F0FE20FE2E2E2F5E2E2E2E2E2E2E2E2E2E2E2E2E2E2E2E2E2E2E2E2E2E2E2E2E2E2E2E2E2E2E2E2E2E2E2E2E2E2E2
310
E2E2E2E2E2E2E2E2E2E2E2E2E2E2E2E2E2E2E2E2E2E2E2E2E2E2E2E2E2E2E2E2E2F5E22D2D2D2D2D2D2D2D2D2D2D2D2D2D2D2D2D2D2D2D2D2D2D2D2D2D2D2D2DE22D2D2DE22D2D2D2D2D2D2D2DE2E2E2E2E2E2E2E2E2E2E2E2E2E2E2E2E2E2E2E2E2E2E2E20FE2F5E2E2E2E2E2E2E2E2E2E2E2E2E2E2E2E2E2E2F5F5E2E2E2
310
E2E2E2E2E2E2F5F5E2E2E2E2E2E2E2E2E2E2E2E2E2E2E2E2E2E2E2E2E2E2E2E2E2E2E2E2E2E2E2E2E2E20FE2E2E2E2E2F5E2F5E2E2F5E2E2E2F5F5E2E2E2F5E2F5E2E2F5E2E2E2F5F5E2E2E2E2E2E2E2E2E2E2E2E20FE2E2E2F5E2E2E2E2E2E2E2E2E2E2E2E2E2E2E2E2E2E2E2E2E2E2E2E2E2E2E2E2E2E2E2E2E2E2E2E2E2
310
E2E2E2E2E2E2E2E2E2E2E2E2E2E2E2E2E2E2E2E2E2E2E2E2E2E2E2E2E2E2E2E2E2E2E2F5E22D2D2D2D2D2D2D2D2D2D2D2D2D2D2D2D2D2D2D2D2D2D2D2D2D2D2D2DE2E2E2E2E2E2E2E2E2E2E2E2E2E2E26A6A6A6A6A6A6A6A6A6AE2E26A6A6A6A6A6A6A6A6A6AE20F6A6A6A6A6A6A6A6A6A6AE2E26A6A6A6A6A6A6A6A6A6AE2
310
E2E2E2F5F5F5F5F5F5F5E2E2E2E2E2E2E2E2E2E2E2E2E2E2E2E2E2E2E2E2E2E2E2E2E2E2E2E2E2E2E2E2E2E2E2E2E2F5F5F5F5F5F5F5F5F5F5F5F5F5F5F5F5F5F5F5F5F5F5F5F5F5F5F5F5F5F50F0F0F0F0F0F0FE2E2E20FE2E2E2F5E2E2E2E2E2E2E2E2E2E2E2E2E2E2E2E2E2E2E2E2E2E2E2E2E2E2E2E2E2E2E2E2E2E2E2
310
E2E2E2E2E2E2E2E2E2E2E2E2E2E2E2E2E2E2E2E2E2E2E2E2E2E2E2E2E2E2E2E2E2E2E2E2E2F5E22DE22DE2E22D2DE22DE2E22D2D2DE2E2E22DE2E22DE2E22D2DE22DE2E2E2E2E2E2E2E2E2E2E2E2E2E2E2E26AE2E2E2E2E2E2E2E26AE2E26AE2E2E2E2E2E2E2E26AE2F56AE2E2E2E2E2E2E2E26AE2E26AE2E2E2E2E2E2E2E2
310
6AF5E2E2F5E2E2E2E2E2F5F5E2E2E2E2E2E2E2E2E2E2E2E2E2E2E2E2E2E2E2E2E2E2E2E2E2E2E2E2E2E2E2E2E2E2E2E2E2F5E2E2F5E2F5E2E2F5E2E2E2F5F5E2E2E2F5E2F5E2E2F5E2E2E2F5F5E2E2F5E2E2E2E2E20F0FE2E20FE2E2E2F5E2E2E2E2E2E2E2E2E2E2E2E2E2E2E2E2E2E2E2E2E2E2E2E2E2E2E2E2E2E2E2E2E2
310
E2E2E2E2E2E2E2E2E2E2E2E2E2E2E2E2E2E2E2E2E2E2E2E2E2E2E2E2E2E2E2E2E2E2E2E2E2E2E2F5E2E2E2E20F0F0F0F0F0F0F0F0F0F0F0F0F0F0F0F0F0F0F0F0F0F0F0F0F0F0F0F0F0F0F0F0F0F0F0F0F0F0F0F6A0F9E9E9E9E9E9E9E6AE2E26AE29E9E9E9E9E9E9E6AE2F56AE29E9E9E9E9E9E9E6AE2E26AE29E9E9E9E9E
310
9E9E6AE2F5F5E2E2E2E2E2E2E2E2E2E2E2E2E2E2E2E2E2E2E2E2E2E2E2F5F5F5F5F5F5F5F5F5F5E2F5E2F5E2E2E2E2E2E2E2E2F5E2E2F5E2F5E2E2F5E2E2E2F5F5E2E2E2F5E2F5E2E2F5E2E2E2F5F5E2E2F5E2E2E2E2E20F0FE2E20FE2E2E2F5E2E2E2E2E2E2E2E2E2E2E2E2E2E2E2E2E2E2E2E2E2E2E2E2E2E2E2E2E2E2E2
310
E2E2E2E2E2E2E2E2E2E2E2E2E2E2E2E2E2E2E2E2E2E2E2E2E2E2E2E2E2E2E2E2E2E2E2E2E2E2E2E2E2F5E2E2E2E20FE2E2E2E2E2E2E2E2E2E2E2E2E2E2E2E2E2E2E2E2E2E2E2E2E2E2E2E2E2E2E2E2E2E2E2E2E2E2E26AE29EE2E2E2E2E29E6AE2E26AE29EE2E2E2E2E29E6AE2F56AE29EE2E2E2E2E29E6AE2E26AE29EE2E2
310
E2E2E29E6AE2F5E2E2E2E2E2E2E2E2E2E2E2E2E2E2E2E2E2E2E2E2E2E2E2E2F5F5E2F5E2F5E2E2F5F5E2F5E2F5E2E2E2E2E2E2E2E2F5E2E2F5E2F5E2E2F5E2E2E2F5F5E2E2E2F5E2F5E2E2F5E2E2E2F5F5E2E2F5E2E2E2E2E20FE2E2E20FE2E2E2F5E2E2E2E2E2E2E2E2E2E2E2E2E2E2E2E2E2E2E2E2E2E2E2E2E2E2E2E2E2
310
E2E2E2E2E2E2E2E2E2E2E2E2E2E2E2E2E2E2E2E2E2E2E2E2E2E2E2E2E2E2E2E2E2E2E2E2E2E2E2E2E2E2E2F5E2E2E20F0FE2E2E2E2E2E2E2E2E2E2E2E2E2E2E2E2E2E2E2E2E2E2E2E2E2E2E2E2E2E2E2E2E2E2E2E2E2E2E26AE29EE2E2E2E2E29E6AE2E26AE29EE2E2E2E2E29E6AF50F6AE29EE2E2E2E2E29E6AE2E26AE29E
310
E2E2E2E2E29E6AE2F5F5E2E2E2E2E2E2E2E2E2E2E2E2E2E2E2E2E2E2E2E2E2E2E2F5F5F5F5E2F5F5E2F5F5E2E2E2F5E2E2E2E2E2E2E2E2F5E2E2F5E2F5E2E2F5E2E2E2F5F5E2E2E2F5E2F5E2E2F5E2E2E2F5F5E2E2F5E2E2E2E2E20FE2E20F0F0FE2E2F5E2E2E2E2E2E2E2E2E2E2E2E2E2E2E2E2E2E2E2E2E2E2E2E2E2E2E2
310
E2E2E2E2E2E2E2E2E2E2E2E2E2E2E2E2E2E2E2E2E2E2E2E2E2E2E2E2E2E2E2E2E2E2E2E2E2E2E2E2E2E2E2E2E2F5E2E2E2E20FE2E2E2E2E2E2E2E2E2E2E2E2E2E2E2E2E2E2E2E2E2E2E2E2E2E2E2E2E2E2E2E2E2E2E2E2E2E2E26AE29EE2E2E2E2E29E6AE2E26AE29EE2E2E2E2E29E6AF50F6AE29EE2E2E2E2E29E6AE2E26A
310
E29EE2E2E2E2E29E6AE2E2F5E2E2E2E2E2E2E2E2E2E2E2E2E2E2E2E2E2E2E2E2E2E2E2E2F5F5F5F5F5F5F5F5F5F5F5E2E2E2E2E2E2E2E2E2E2F5F5E2F5E2F5E2E2F5E2E2E2F5F5E2E2E2F5E2F5E2E2F5E2E2E2F5F5E2E2F5E2E2E2E2E2E2E2E20F0F0F0FE2F5E2E2E2E2E2E2E2E2E2E2E2E2E2E2E2E2E2E2E2E2E2E2E2E2E2
310
E2E2E2E2E2E2E2E2E2E2E2E2E2E2E2E2E2E2E2E2E2E2E2E2E2E2E2E2E2E2E2E2E2E2E2E2E2E2E2E2E2E2E2E2E2E2E2F5E2E2E2E20FE2E2E2E2E2E2E2E2E2E2E2E2E2E2E2E2E2E2E2E2E2E2E2E2E2E2E2E2E2E2E2E2E2E2E2E2E2E2E26AE29EE2E2E2E2E29E6AE2E26AE29EE2E2E2E2E29E6AF50F6AE29EE2E2E2E2E29E6AE2
310
E26AE29EE2E2E2E2E29E6AE2E2F5E2E2E2E2E2E2E2E2E2E2E2E2E2E2E2E2E2E2E2E2E2E2E2E2E2F5F5E2F5F5F5F5E2F5F5E2E2E2E2E2E2E2E2E2E2E2F5E2F5E2F5E2E2F5E2E2E2F5F5E2E2E2F5E2F5E2E2F5E2E2E2F5F5E2E2F5E2E2E2E2E2E2E2E2E20F0F0FE2F5E2E2E2E2E2E2E2E2E2E2E2E2E2E2E2E2E2E2E2E2E2E2E2
310
E2E2E2E2E2E2E2E2E2E2E2E2E2E2E2E2E2E2E2E2E2E2E2E2E2E2E2E2E2E2E2E2E2E2E2E2E2E2E2E2E2E2E2E2E2E2E2E2E2F5E2E2E2E20FE2E2E20F0F0F0F0F0F0F0F0F0F0F0F0F0F0F0F0F0F0F0F0F0F0F0F5757575757575757575757576A579E57575757579E6A57576A579E57575757579E6AF50F6A579E57575757579E
310
6A57576A579E57575757579E6A5757F55757575757575757575757E2E2E2E2E2E2E2E2E2E2E2E2E2F5F5F5F5F5F5F5F5E2F5F5E2E2E2E2E2E2E2E2E2E2E2F5E2F5E2F5E2E20FE2E2E2F5F5E2E2E2F5E2F5E2E2F5E2E2E2F5F5E2F5E2E2E2E2E2E2E2E2E2E20F0FE2E2F5E2E2E2E2E2E2E2E2E2E2E2E2E2E2E2E2E2E2E2E2E2
310
E2E2E2E2E2E2E2E2E2E2E2E2E2E2E2E2E2E2E2E2E2E2E2E2E2E2E2E2E2E2E2E2E2E2E2E2E2E2E2E2E2E2E2E2E2E2E2E2E2E2E2F5E2E2E2E20FE2E2E20F0FE2E2E2E2E2E2E2E2E2E2E2E2E2E2E2E2E2E2E2E2E257E2E2E2E2E2E2E2E2E2E2E2E26AE29EE2E2E2E2E29E6AE2E26AE29EE2E2E2E2E29E6AF50F6AE29EE2E2E2E2
310
E29E6AE2E26AE29EE2E2E2E2E29E6AE2E2F5E2E2E2E2E2E2E2E2E2E257E2E2E2E2E2E2E2E2E2E2E2E2E2E2E2E2E2E2E2E2E2E2E2E2E2E2E2E2E2E2E2E2E2E2E2E2F50F0F0FE2E2F5E2E2E2F5F5E2E2E2F5E2F5E2E2F5E2E2F5F5F5E2F5E2E2E2E2E2E2E2E2E2E20FE2E2E2F5E2E2E2E2E2E2E2E2E2E2E2E2E2E2E2E2E2E2E2
310
E2E2E2E2E2E2E2E2E2E2E2E2E2E2E2E2E2E2E2E2E2E2E2E2E2E2E2E2E2E2E2E2E2E2E2E2E2E2E2E2E2E2E2E2E2E2E2E2E2E2E2E2E2F5E2E2E2E20FE2E2E20F0FE2E2E2E2E2E2E2E2E2E2E2E2E2E2E2E2E2E2E2E2E257E2E2E2E2E2E2E2E2E2E2E2E26AE29EE2E2E2E2E29E6AE2E26AE29EE2E2E2E2E29E6AF50F6AE29EE2E2
310
E2E2E29E6AE2E26AE29EE2E2E2E2E29E6AE2E2F5E2E2E2E2E2E2E2E2E2E257E2E2E2E2E2E2E2E2E2E2E2E2E2E2E2E2E2E2E2E20F0F0F0F0FE2E2E2E2E2E2E2E2E2E20F0F0F0FF5F5E2F5E2E2F5F5F5E2E2E2F5E2F5E2E2F5E2E2F5F5F5F5E2E2E2E2E2E2E2E2E2E2E20F0FE2E2F5E2E2E2E2E2E2E2E2E2E2E2E2E2E2E2E2E2
310
E2E2E2E2E2E2E2E2E2E2E2E2E2E2E2E2E2E2E2E2E2E2E2E2E2E2E2E2E2E2E2E2E2E2E2E2E2E2E2E2E2E2E2E2E2E2E2E2E2E2E2E2E2E2E2F5E2E2E2E20FE2E2E20FE2E2E2E2E2E2E2E2E2E2E2E2E2E2E2E2E2E2E2E2E2E257E2E2E2E2E2E2E2E2E2E2E2E26AE29EE2E2E2E2E29E6AE2E26AE29EE2E2E2E2E29E6AF50F6AE29E
310
E2E2E2E2E29E6AE2E26AE29EE2E2E2E2E29E6AE2E2F5E2E2E2E2E2E2E2E2E2E257E2E2E2E2E2E2E2E2E2E2E2E2E2E2E2E2E2E2E2E20F0F0F0F0F0F0F0F0F0F0F0F0F0F0FE2E2F5F5E2F5F5F5E2F5F5F5F5E2E2E2E2F5E2F5F5F5E2F5F5F5F5F5E2E2E2E2E2E2E2E2E2E2E20F0FE2E2F5E2E2E2E2E2E2E2E2E2E2E2E2E2E2E2
310
E2E2E2E2E2E2E2E2E2E2E2E2E2E2E2E2E2E2E2E2E2E2E2E2E2E2E2E2E2E2E2E2E2E2E2E2E2E2E2E2E2E2E2E2E2E2E2E2E2E2E2E2E2E2E2E2E2F5E2E2E2E20FE2E2E20FE2E2E2E2E2E2E2E2E2E2E2E2E2E2E2E2E2E2E2E2E2E257E2E2E2E2E2E2E2E2E2E2E2E26AE29EE2E2E2E2E29E6AE2E26AE29EE2E2E2E2E29E6AF50F6A
310
E29EE2E2E2E2E29E6AE2E26AE29EE2E2E2E2E29E6AE2E2F5E2E2E2E2E2E2E2E2E2E257E2E2E2E2E2E2E2E2E2E2E2E2E2E2E2E2E2E2E2E20F0F0F0F0FE2E2E2E2E2E2E2E2E2E2E2E2F5F5F5E2F5F5F5F5F5F5E2E2E2E2E2F5F5E2F50F0F0F0F0F0F0F0F0F0F0F0F0F0F0F0F0F0F0FE2E2E2F5E2E2E2E2E2E2E2E2E2E2E2E2E2
310
E2E2E2E2E2E2E2E2E2E2E2E2E2E2E2E2E2E2E2E2E2E2E2E2E2E2E2E2E2E2E2E2E2E2E2E2E2E2E2E2E2E2E2E2E2E2E2E2E2E2E2E2E2E2E2E2E2E2E2F5E2E2E2E20FE2E2E20FE2E2E2E2E2E2E2E2E2E2E2E2E2E2E2E2E2E2E2E2E2E257E2E2E2E2E2E2E2E2E2E2E2E26AE29EE2E2E2E2E29E6AE2E26AE29EE2E2E2E2E29E6AF5
310
0F6AE29EE2E2E2E2E29E6AE2E26AE29EE2E2E2E2E29E6AE2F5F5E2E2E2E2E2E2E2E2E2E20FE2E2E2E2E2E2E2E2E2E2E2E2E2E2E2E2E2E2E2E2E2E2E2E2E2E2E2E2E2E2E2E2E2E2E2E2E2E2F5F5F5F5F5F5F5F5E2E2E2E2E2E2E2F5F5F5F5F5F5F5F5E2E2E2E2E2E2E2E2E2E2E2E2E2E2E2E2E2F5E2E2E2E2E2E2E2E2E2E2E2
310
E2E2E2E2E2E2E2E2E2E2E2E2E2E2E2E2E2E2E2E2E2E2E2E2E2E2E2E2E2E2E2E2E2E2E2E2E2E2E2E2E2E2E2E2E2E2E2E2E2E2E2E2E2E2E2E2E2E2E2E2E2F5E2E2E2E20FE2E2E20FE2E2E2E2E2E2E2E2E2E2E2E2E2E2E2E2E2E2E2E2E2E257E2E2E2E2E2E2E2E2E2E2E2E26AE29EE2E2E2E2E29E6AE2E26AE29EE2E2E2E2E29E
310
6AE2F56AE29EE2E2E2E2E29E6AE2E26AE29EE2E2E2E2E29E6AE2F5E2E2E2E2E2E2E2E2E2E2E2570FE2E2E2E2E2E2E2E2E2E2E2E2E2E2E2E2E2E2E2E2E2E2E2E2E2E2E2E2E2E2E2E2E2E2E2E2E2E2F5F5E2F5E2E2E2E2E2E2E2E2E2E2E2E2E2F5E2E2F5E2E2E2E2E2E2E2E2E2E2E2E2E2E2E2E2E2E2F5E2E2E2E2E2E2E2E2E2
310
E2E2E2E2E2E2E2E2E2E2E2E2E2E2E2E2E2E2E2E2E2E2E2E2E2E2E2E2E2E2E2E2E2E2E2E2E2E2E2E2E2E2E2E2E2E2E2E2E2E2E2E2E2E2E2E2E2E2E2E2E2E2E2F5E2E2E2E20FE2E2E20FE2E2E2E2E2E2E2E2E2E2E2E2E2E2E2E2E2E2E2E2E2E257E2E2E2E2E2E2E2E2E2E2E2E26AE29EE2E2E2E29E9E6AE2E26AE29EE2E2E2E2
310
9E9E6AE2F56AE29EE2E2E2E2E29E6AE2E26AE29EE2E2E2E2E29E6AE2F5E2E2E2E2E2E2E2E2E2E2E2570F0FE2E2E2E2E2E2E2E2E2E2E2E2E2E2E2E2E2E2E2E2E2E2E2E2E2E2E2E2E2E2E2E2E2E2E2E2E2E2E2F50FE2E2E2E2E2E2E2E2E2E2E2E2E20FF5F5E2E2E2E2E2E2E2E2E2E2E2E2E2E2E2E2E2E2E2F5E2E2E2E2E2E2E2
310
E2E2E2E2E2E2E2E2E2E2E2E2E2E2E2E2E2E2E2E2E2E2E2E2E2E2E2E2E2E2E2E2E2E2E2E2E2E2E2E2E2E2E2E2E2E2E2E2E2E2E2E2E2E2E2E2E2E2E2E2E2E2E2E2E2F5E2E2E2E20FE2E2E20FE2E2E2E2E2E2E2E2E2E2E2E2E2E2E2E2E2E2E2E2E2E257E2E2E2E2E2E2E2E2E2E2E2E26A6A9E9EE2E2E29EE26AE2E2E26A9E9EE2
310
E2E29EE26AE2F5F56A9E9EE2E2E29EE26AE2E2E26A9E9EE2E2E29EE26AF5E2E2E2E2E2E2E2E2E2E2E2E257E20FE2E2E2E2E2E2E2E2E2E2E2E2E2E2E2E2E2E2E2E2E2E2E2E2E2E2E2E2E2E2E2E2E2E2E2E2E2E2E2E20FF5F5E2E2E2E2E2E2E2E2E2E2F50FF5E2E2E2E2E2E2E2E2E2E2E2E2E2E2E2E2E2E2E2E2F5E2E2E2E2E2
310
E2E2E2E2E2E2E2E2E2E2E2E2E2E2E2E2E2E2E2E2E2E2E2E2E2E2E2E2E2E2E2E2E2E2E2E2E2E2E2E2E2E2E2E2E2E2E2E2E2E2E2E2E2E2E2E2E2E2E2E2E2E2E2E2E2E2E2F5E2E2E2E20FE2E2E20FE2E2E2E2E2E2E20F0F0F0FE2E2E2E2E2E2E2E2E2E2E257E2E2E2E2E2E2E2E2E2E2E2E2E26A6A9E9E9E9EE26AE2E2E2E26A6A
310
9E9E9E9E9E6AE2E20FF56A6A9E9E9E9E9E6A6AE2E2E26A6A9E9E9E9E9E6A6AE2E2E2E2E2E2E2E2E2E2E2E2E257E2E20FE2E2E2E2E2E2E2E2E2E2E2E2E2E2E2E2E2E2E2E2E2E2E2E2E2E2E2E2E2E2E2E2E2E2E2E2E2E2E20FE2F5F5F5F5F5E2E2F5F5F5F5F50FE2E2E2E2E2E2E2E2E2E2E2E2E2E2E2E2E2E2E2E2E2F5E2E2E2
310
E2E2E2E2E2E2E2E2E2E2E2E2E2E2E2E2E2E2E2E2E2E2E2E2E2E2E2E2E2E2E2E2E2E2E2E2E2E2E2E2E2E2E2E2E2E2E2E2E2E2E2E2E2E2E2E2E2E2E2E2E2E2E2E2E2E2E2E2E2F5E2E2E2E20FE2E2E20FE2E2E2E2E2E2E2E20F0F0F0F0F0FE2E2E2E2E2E2E2E257E2E2E2E2E2E2E2E2E2E2E2E2E2E26A6A6A6A6A6AE2E2E2E2E2
310
E26A6A6A6A6A6AE2E2E20FE2F56A6A6AE26A6A6AE2E2E2E2E26A6A6AE26A6A6AF5E2E2E2E2E2E2E2E2E2E2E2E2E257E2E2E20FE2E2E2E2E2E2E2E2E2E2E2E2E2E2E2E2E2E2E2E2E2E2E2E2E2E2E2E2E2E2E2E2E2E2E2E2E2E20FE2E2E2E2E2E2F5F5E2E2E2E2E20FE2E2E2E2E2E2E2E2E2E2E2E2E2E2E2E2E2E2E2E2E2F5E2
310
E2E2E2E2E2E2E2E2E2E2E2E2E2E2E2E2E2E2E2E2E2E2E2E2E2E2E2E2E2E2E2E2E2E2E2E2E2E2E2E2E2E2E2E2E2E2E2E2E2E2E2E2E2E2E2E2E2E2E2E2E2E2E2E2E2E2E2E2E2E2E2F5E2E2E2E20FE2E2E20FE2E2E2E2E2E2E2E20F0F0FE2E20FE2E2E2E2E2E2E2E257E2E2E2E2E2E2E2E2E2E2E2E2E2E2E2E26A6AE2E2E2E2E2
310
E2E2E2E2E26A6AE2E2E2E2E20FE2E2F5E26A6AE2E2E2E2E2E2E2E2E2E26A6AE2F5F5E2E2E2E2E2E2E2E2E2E2E2E2E2E257E2E2E2E20FE2E2E2E2E2E2E2E2E2E2E2E2E2E2E2E2E2E2E2E2E2E2E2E2E2E2E2E2E2E2E2E2E2E2E2E2E20FE20F0FE2E20F0F0FE2E2E20FE20FE2E2E2E2E2E2E2E2E2E2E2E2E2E2E2E2E2E2E2E2E2
310
F5E2E2E2E2E2E2E2E2E2E2E2E2E2E2E2E2E2E2E2E2E2E2E2E2E2E2E2E2E2E2E2E2E2E2E2E2E2E2E2E2E2E2E2E2E2E2E2E2E2E2E2E2E2E2E2E2E2E2E2E2E2E2E2E2E2E2E2E2E2E2E2E2F5E2E2E2E20FE2E2E20FE2E2E2E2E2E2E2E2E2E2E2E2E20FE2E2E2E2E2E2E2E257E2E2E2E2E2E2E2E2E2E2E2E2E2E2E2E2E2E2E2E2E2
310
E2E2E2E2E2E2E2E2E2E2E2E2E2E20FE2E2E2F5F5E2E2E2E2E2E2E2E2E2E2E2E2E2F5F5E2E2E2E2E2E2E2E2E2E2E2E2E2E2E257E2E2E2E2E20FE2E2E2E2E2E2E2E2E2E2E20F0F0F0F0F0F0F0F0FE2E2E2E2E2E2E2E2E2E2E2E2E2E2E2E20F0F0F0F0F0F0F0F0F0F0F0F0F0F0FE2E2E2E2E2E2E2E2E2E2E2E2E2E2E2E2E2E2E2
310
E2E2F5E2E2E2E2E2E2E2E2E2E2E2E2E2E2E2E2E2E2E2E2E2E2E2E2E2E2E2E2E2E2E2E2E2E2E2E2E2E2E2E2E2E2E2E2E2E2E2E2E2E2E2E2E2E2E2E2E2E2E2E2E2E2E2E2E2E2E2E2E2E2E2E2F5E2E2E2E20FE2E2E20FE2E2E2E2E2E2E2E2E2E2E2E2E20FE26A6A6A6A6A6A6A6A6A6A6A6A6A6A6A6AE2E2E2E2E2E2E2E2E2E2E2
310
E2E2E2E2E2E2E2E2E2E2E2E2E2E2E2E20FE2E2E2E2E2F5F5E2E2E2E2E2E2E2E2F5F5F5E2E2E2E2E2E2E2E26A6A6A6A6A6A6A6A6A6A6A6A6A6A6A6A0FE2E2E2E2E2E2E2E2E2E20F0F0F0F0FE20F0F0FE2E2E2E2E2E2E2E2E2E2E2E2E2E2E2E2E2E2E2E2E2E20F0F0FE2E2E2E2E2E2E2E2E2E2E2E2E2E2E2E2E2E2E2E2E2E2E2
310
E2E2E2E2F5E2E2E2E2E2E2E2E2E2E2E2E2E2E2E2E2E2E2E2E2E2E2E2E2E2E2E2E2E2E2E2E2E2E2E2E2E2E2E2E2E2E2E2E2E2E2E2E2E2E2E2E2E2E2E2E2E2E2E2E2E2E2E2E2E2E2E2E2E2E2E2E2F5E2E2E2E20FE2E2E20FE2E2E2E2E2E2E2E2E2E2E2E2E20F0F6A0F9E9E9E9E9E9E9E9E9E9E9E9E9E6A6A6AE2E2E2E2E2E2E2
310
E2E2E2E2E2E2E2E2E2E2E2E2E2E2E2E2E2E20FE2E2E2E2E2E2E2F5F5F5F5F5F5F5F5F5E2E2E2E2E2E2E2E2E26A6AE29E9E9E9E9E9E9E9E9E9E9E9E9E6AE20FE2E2E2E2E2E2E2E2E20F0F0F0F0F0F0F0F0FE2E2E2E2E2E2E2E2E2E2E2E2E2E2E2E2E2E2E2E2E2E2E2E2E2E2E2E2E2E2E2E2E2E2E2E2E2E2E2E2E2E2E2E2E2E2
310
E2E2E2E2E2E2F5E2E2E2E2E2E2E2E2E2E2E2E2E2E2E2E2E2E2E2E2E2E2E2E2E2E2E2E2E2E2E2E2E2E2E2E2E2E2E2E2E2E2E2E2E2E2E2E2E2E2E2E2E2E2E2E2E2E2E2E2E2E2E2E2E2E2E2E2E2E2E2E2F5E2E2E2E20FE2E2E20FE2E2E2E2E2E2E2E2E2E2E2E2E20FE26AE29EE2E2E2E257E2E2E2E2E2E29E9EE26AE2E2E2E2E2
310
E2E2E2E2E2E2E2E2E2E2E2E2E2E2E2E2E2E2E2E20FE2E2E2E2E2E2E2E2E2E2E2E2E2E2E2E2E2E2E2E2E2E2E2E26A6A9E9E9EE2E2E2E2E2E257E2E2E2E29E6AE2E20FE2E2E2E2E20F0F0F0F0F0F0F0F0F0F0F0FE2E2E2E2E2E2E2E2E2E2E2E2E2E2E2E2E2E2E2E2E2E2E2E2E2E2E2E2E2E2E2E2E2E2E2E2E2E2E2E2E2E2E2E2
310
E2E2E2E2E2E2E2E2F5E2E2E2E2E2E2E2E2E2E2E2E2E2E2E2E2E2E2E2E2E2E2E2E2E2E2E2E2E2E2E2E2E2E2E2E2E2E2E2E2E2E2E2E2E2E2E2E2E2E2E2E2E2E2E2E2E2E2E2E2E2E2E2E2E2E2E2E2E2E2E2E2F5E2E2E2E20FE2E2E20FE2E2E2E2E2E2E2E2E2E2E2E20F0FE26AE29EE2E2E2E257E2E2E2E2E2E2E2E29E6A6AE2E2
310
E2E2E2E2E2E2E2E2E2E2E2E2E2E2E2E2E2E2E2E2E2E20FE2E2E2E2E2E2E2E2E2E2E2E2E2E2E2E2E2E2E2E2E2E2E2E26A9E9EE2E2E2E2E2E2E2E257E2E2E2E29E6AE2E2E20F0F0F0F0F0F0F0F0F0F0F0F0F0F0F0F0FE2E2E2E2E2E2E2E2E2E2E2E2E2E2E2E2E2E2E2E2E2E2E2E2E2E2E2E2E2E2E2E2E2E2E2E2E2E2E2E2E2E2
310
E2E2E2E2E2E2E2E2E2E2F5E2E2E2E2E2E2E2E2E2E2E2E2E2E2E2E2E2E2E2E2E2E2E2E2E2E2E2E2E2E2E2E2E2E2E2E2E2E2E2E2E2E2E2E2E2E2E2E2E2E2E2E2E2E2E2E2E2E2E2E2E2E2E2E2E2E2E2E2E2E2E2E2F5E2E2E2E20FE2E2E20FE2E2E2E20F0F0F0F0F0F0F0F0F0F0F6A0F9E0F0F0F0F0F0F0F0F0F0F0F0F0F9E0F6A
310
0F0FE2E2E2E2E2E2E2E2E2E2E2E2E2E2E2E2E2E2E2E2E2E20FE2E2E2E2E2E2E2E2E2E2E2E2E2E2E2E2E2E2E2E2E2E2E2E26A9EE2E2E2E2E2E2E2E2E257E2E2E2E29E6AE2E2E2E2E2E2E2E20F0F0F0F0F0F0F0F0F0F0F0FE2E2E2E2E2E2E2E2E2E2E2E2E2E2E2E2E2E2E2E2E2E2E2E2E2E2E2E2E2E2E2E2E2E2E2E2E2E2E2E2
310
E2E2E2E2E2E2E2E2E2E2E2E2F5E2E2E2E2E2E2E2E2E2E2E2E2E2E2E2E2E2E2E2E2E2E2E2E2E2E2E2E2E2E2E2E2E2E2E2E2E2E2E2E2E2E2E2E2E2E2E2E2E2E2E2E2E2E2E2E2E2E2E2E2E2E2E2E2E2E2E2E2E2E2E2E2F5E2E2E2E20FE2E2E20FE2E2E2E20FE2E2E2E2E2E2E20F0FE26AE29EE2E2E2E257E2E2E2E2E2E2E2E29E
310
E26AE2E2E2E2E2E2E29E9E9E9E9E9E9E9E9E9E9E9E9E9E9E9E9E0F9E9E9E9E9E9E9E9E9E9E9E9E9E9E9E9E9EE2E2E2E2E2E2E26A9EE2E2E2E2E2E2E2E2E257E2E2E2E29E6AE2E2E2E2E2E2E2E2E2E2E2E2E2E2E2E2E2E2E2E2E2E2E2E2E2E2E2E2E2E2E2E2E2E2E2E2E2E2E2E2E2E2E2E2E2E2E2E2E2E2E2E2E2E2E2E2E2E2
310
E2E2E2E2E2E2E2E2E2E2E2E2E2E2F5E2E2E2E2E2E2E2E2E2E2E2E2E2E2E2E2E2E2E2E2E2E2E2E2E2E2E2E2E2E2E2E2E2E2E2E2E2E2E2E2E2E2E2E2E2E2E2E2E2E2E2E2E2E2E2E2E2E2E2E2E2E2E2E2E2E2E2E2E2E2E2E2F5E2E2E2E20FE2E2E20FE2E2E2E20F0FE2E2E2E2E2E2E20FE26AE29EE2E2E2E257E2E2E2E2E2E2E2
310
9E9E6A6AE2E2E2E2E2E2E29EE2E2E2E2E2E2E2E2E2E2E2E2E2E2E2E20FE2E2E2E2E2E2E2E2E2E2E2E2E2E2E2E20F0F0F0F0F0F0F0F6A9E9E0F0F0F0F0F0F0F0F0F0F0F0F0F9E6A0F0F0F0F0F0F0F0F0F0F0F0F0F0F0F0F0F0F0F0F0F0F0F0F0F0F0F0F0F0F0F0F0F0F0F0F0F0F0F0F0F0F0F0F0F0F0F0F0F0F0F0F0F0F0F0F
310
0FE2E2E2E2E2E2E2E2E2E2E2E2E2E2E2F5E2E2E2E2E2E2E2E2E2E2E2E2E2E2E2E2E2E2E2E2E2E2E2E2E2E2E2E2E2E2E2E2E2E2E2E2E2E2E2E2E2E2E2E2E2E2E2E2E2E2E2E2E2E2E2E2E2E2E2E2E2E2E2E2E2E2E2E2E2E2E2E2F5E2E2E2E20FE2E2E20FE2E2E2E20F0FE2E2E2E2E2E2E20F0F6A0F9E9E9E9E9E9E9E9E9E9E9E
310
9E9E9EE26AE2E2E2E2E2E2E2E29EE2E2E2E2E2E2E2E2E2E2E2E2E2E2E2E20FE2E2E2E2E2E2E2E2E2E2E2E2E2E2E2E29EE2E2E2E2E2E2E26A6A9E9E9E9E9E9E9E9E9E9E9E9E9E9E9E6AE2E2E2E2E2E2E2E2E2E2E2E2E2E2E2E2E2E2E2E2E2E2E2E2E2E2E2E2E2E2E2E2E2E2E2E2E2E2E2E2E2E2E2E2E2E2E2E2E2E2E2E2E2E2
310
E2E20FE2E2E2E2E2E2E2E2E2E2E2E2E2E2E2F5E2E2E2E2E2E2E2E2E2E2E2E2E2E2E2E2E2E2E2E2E2E2E2E2E2E2E2E2E2E2E2E2E2E2E2E2E2E2E2E2E2E2E2E2E2E2E2E2E2E2E2E2E2E2E2E2E2E2E2E2E2E2E2E2E2E2E2E2E2E2E2E2F5E2E2E2E20FE2E2E20FE2E2E2E20FE2E2E2E2E2E2E2E2E2E26AE2E2E2E2E2E257E2E2E2
310
E2E2E2E26A6AE2E2E2E2E2E2E2E2E29EE26A6A6A6A6A6A6A6A6A6A6A6A6A6A6A0F6A6A6A6A6A6A6A6A6A6A6A6A6A0F0F0F0F0F0F0F0F0F0F0F0F6A6A0F0F0F0F0F0F0F0F0F0F0F0F0F0F6A0F0F0F0F0F0F0F0F0F0F0F0F0F0F0F0F0F0F0F0F0F0F0F0F0F0F0F0F0F0F0F0F0F0F0F0F0F0F0F0F0F0F0F0F0F0F0F0FE2E2E2E2
310
E2E2E20F0FE2E2E2E2E2E2E2E2E2E2E2E2E2E2E2F5E2E2E2E2E2E2E2E2E2E2E2E2E2E2E2E2E2E2E2E2E2E2E2E2E2E2E2E2E2E2E2E2E2E2E2E2E2E2E2E2E2E2E2E2E2E2E2E2E2E2E2E2E2E2E2E2E2E2E2E2E2E2E2E2E2E2E2E2E2E2E2E2F5E2E2E2E20FE2E2E20FE2E2E2E20FE2E2E2E2E2E2E2E2E2E26A6A6A6A6A6A6A6A6A
310
6A6A6A6A6A6A6AE2E2E2E2E2E2E2E2E2E29EE26AE2E2E2E2E2E2E2E2E2E2E2E2E2E20FE2E2E2E2E2E2E2E2E2E2E20FE26AE2E29EE2E2E2E2E2E2E2E2E2E26A6A6A6A6A6A6A6A6A6A6A6A6A6A6AE2E2E2E2E2E2E2E2E2E2E2E2E2E2E2E2E2E2E2E2E2E2E2E2E2E2E2E2E2E2E2E2E2E2E2E2E2E2E2E2E2E2E2E2E2E2E20F0FE2
310
E2E2E2E2E2E20FE2E2E2E2E2E2E2E2E2E2E2E2E2E2E2F5E2E2E2E2E2E2E2E2E2E2E2E2E2E2E2E2E2E2E2E2E2E2E2E2E2E2E2E2E2E2E2E2E2E2E2E2E2E2E2E2E2E2E2E2E2E2E2E2E2E2E2E2E2E2E2E2E2E2E2E2E2E2E2E2E2E2E2E2E2E2E2E2F5E2E2E2E20FE2E2E20FE2E2E2E20FE2E2E2E2E2E2E2E2E2E2E2E2E2E2E2E2E2
310
57E2E2E2E2E2E2E2E2E2E2E2E2E2E2E2E2E2E29EE26AE2E2E2E2E2E2E2E2E2E2E2E2E2E20FE2E2E2E2E2E2E2E2E2E2E20F0F0F0F0F0F0F0FE2E2E2E2E2E2E2E2E2E2E2E2E2E2E2E257E2E2E2E2E2E2E2E2E2E2E2E2E2E2E2E2E2E2E2E2E2E2E2E2E2E2E2E2E2E2E2E2E2E2E2E2E2E2E2E2E2E2E2E2E2E2E2E2E2E2E2E2E20F
310
0FE2E2E2E2E2E2E20FE2E2E2E2E2E2E2E2E2E2E2E2E2E2E2F5E2E2E2E2E2E2E2E2E2E2E2E2E2E2E2E2E2E2E2E2E2E2E2E2E2E2E2E2E2E2E2E2E2E2E2E2E2E2E2E2E2E2E2E2E2E2E2E2E2E2E2E2E2E2E2E2E2E2E2E2E2E2E2E2E2E2E2E2E2E2E2E2F5E2E2E2E20FE2E2E20FE2E2E2E20FE2E2E2E2E2E2E2E2E2E2E2E2E2E2E2
310
E2E257E2E2E2E2E2E2E2E2E2E2E2E2E2E2E2E2E2E29EE26AE2E2E2E2E2E2E2E2E2E2E2E2E2E20FE2E2E2E2E2E2E2E2E2E2E2E2E26AE2E29EE2E20F0F0F0F0F0F0F0F0F0F0F0FE2E2E2E257E2E2E2E2E2E2E2E2E2E2E2E2E2E2E2E2E2E2E2E2E2E2E2E2E2E2E2E2E2E2E2E2E2E2E2E2E2E2E2E2E2E2E2E2E2E2E2E2E2E2E2E2
310
E20FE2E2E2E2E2E2E2E20FE2E2E2E2E2E2E2E2E2E2E2E2E2E2E2F5E2E2E2E2E2E2E2E2E2E2E2E2E2E2E2E2E2E2E2E2E2E2E2E2E2E2E2E2E2E2E2E2E2E2E2E2E2E2E2E2E2E2E2E2E2E2E2E2E2E2E2E2E2E2E2E2E2E2E2E2E2E2E2E2E2E2E2E2E2E2E2E2F5E2E2E2E20FE2E2E20FE2E2E2E20FE2E2E2E2E2E2E2E2E2E26A6A6A
310
6A6A6A6A6A6A6A6A6A6A6A6A6AE2E2E2E2E2E2E2E2E2E29EE26AE2E2E2E2E2E2E2E2E2E2E2E2E2E20FE2E2E2E2E2E2E2E2E2E2E2E2E26AE2E29EE2E2E2E2E2E2E2E2E26A6A6A6A6A6A6A6A6A6A6A6A6A6A6A6A0F0FE2E2E2E2E2E2E2E2E2E2E20F0F0F0F0F0F0F0F0F0F0F0FE20F0F0F0F0FE2E2E2E2E2E2E2E2E2E2E2E2E2
310
E2E2E20FE2E2E2E2E2E2E2E20FE2E2E2E2E2E2E2E2E2E2E2E2E2E2E2F5E2E2E2E2E2E2E2E2E2E2E2E2E2E2E2E2E2E2E2E2E2E2E2E2E2E2E2E2E2E2E2E2E2E2E2E2E2E2E2E2E2E2E2E2E2E2E2E2E2E2E2E2E2E2E2E2E2E2E2E2E2E2E2E2E2E2E2E2E2E2E2E2F5E2E2E2E20FE2E2E20FE2E2E2E20FE2E2E2E2E2E2E2E2E2E26A
310
E29E9E9E9E9E9E9E9E9E9E9E9E9EE26A6AE2E2E2E2E2E2E2E29EE26AE2E2E2E2E2E2E2E2E2E2E2E2E2E20FE2E2E2E2E2E2E2E2E2E2E2E2E26AE2E29EE2E2E2E2E2E2E2E26A6AE29E9E9E9E9E9E9E9E9E9E9E9E9E6AE2E20F0F0F0F0F0F0F0F0F0F0F0F0F0F0F0F0F0F0F0F0F0F0FE20F0F0F0F0FE2E2E2E2E2E2E2E2E2E2E2
310
E2E2E2E2E20FE2E2E2E2E2E2E2E20FE2E2E2E2E2E2E2E2E2E2E2E2E2E2E2F5E2E2E2E2E2E2E2E2E2E2E2E2E2E2E2E2E2E2E2E2E2E2E2E2E2E2E2E2E2E2E2E2E2E2E2E2E2E2E2E2E2E2E2E2E2E2E2E2E2E2E2E2E2E2E2E2E2E2E2E2E2E2E2E2E2E2E2E2E2E2E2E2F5E2E2E2E20FE2E2E20FE2E2E2E20FE2E2E2E2E2E2E2E2E2
310
E26AE29EE2E2E2E257E2E2E2E2E2E29E9EE26AE2E2E2E2E2E2E2E29EE26AE2E2E2E2E2E2E2E2E2E2E2E2E2E20FE2E2E2E2E2E2E2E2E2E2E2E2E26AE2E29EE2E2E2E2E2E2E26A6A9E9EE2E2E2E2E2E2E257E2E2E2E29E6AE2E2E2E2E2E2E2E2E2E2E2E2E20F0F0F0F0F0F0F0F0F0F0F0FE20F0F0F0FE2E2E2E2E2E2E2E2E2E2
310
E2E2E2E2E2E2E20FE2E2E2E2E2E2E2E20FE2E2E2E2E2E2E2E2E2E2E2E2E2E2E2F5E2E2E2E2E2E2E2E2E2E2E2E2E2E2E2E2E2E2E2E2E2E2E2E2E2E2E2E2E2E2E2E2E2E2E2E2E2E2E2E2E2E2E2E2E2E2E2E2E2E2E2E2E2E2E2E2E2E2E2E2E2E2E2E2E2E2E2E2E2E2E2E2F5E2E2E2E20FE2E2E20FE2E2E2E20FE2E2E2E2E2E2E2
310
E2E2E26AE29EE2E2E2E257E2E2E2E2E2E2E2E29E6A6AE2E2E2E2E2E2E29EE26AE2E2E2E2E2E2E2E2E2E2E2E2E2E20FE2E2E2E2E2E2E2E2E2E2E2E2E26AE2E29EE2E2E2E2E2E2E26A9E9EE2E2E2E2E2E2E2E257E2E2E2E29E6AE2E2E2E2E2E2E2E2E2E2E2E2E2E2E2E2E2E2E2E2E2E2E2E2E2E2E2E2E2E2E2E2E2E2E2E2E2E2
310
E2E2E2E2E2E2E2E2E20FE2E2E2E2E2E2E2E20FE2E2E2E2E2E2E2E2E2E2E2E2E2E2E2F5E2E2E2E2E2E2E2E2E2E2E2E2E2E2E2E2E2E2E2E2E2E2E2E2E2E2E2E2E2E2E2E2E2E2E2E2E2E2E2E2E2E2E2E2E2E2E2E2E2E2E2E2E2E2E2E2E2E2E2E2E2E2E2E2E2E2E2E2E2E2E2E2F5E2E2E2E20FE2E2E20FE2E2E2E20FE2E2E2E2E2
310
E2E2E2E2E26AE29EE2E2E2E257E2E2E2E2E2E2E2E29EE26AE2E2E2E2E2E2E29EE26AE2E2E2E2E2E2E2E2E2E2E2E2E2E20FE2E2E2E2E2E2E2E2E2E2E2E2E26AE2E29EE2E2E2E2E2E2E26A9EE2E2E2E2E2E2E2E2E257E2E2E2E29E6AE2E2E2E2E2E2E2E2E2E2E2E2E2E2E2E2E2E2E2E2E2E2E2E2E2E2E2E2E2E2E2E2E2E2E2E2
310
E2E2E2E2E2E2E2E2E2E2E20FE2E2E2E2E2E2E2E20FE2E2E2E2E2E2E2E2E2E2E2E2E2E2E2F5E2E2E2E2E2E2E2E2E2E2E2E2E2E2E2E2E2E2E2E2E2E2E2E2E2E2E2E2E2E2E2E2E2E2E2E2E2E2E2E2E2E2E2E2E2E2E2E2E2E2E2E2E2E2E2E2E2E2E2E2E2E2E2E2E2E2E2E2E2E2E2E2F5E2E2E2E20FE2E2E20FE2E2E2E20FE2E2E2
310
E2E2E2E2E2E2E26AE29EE2E2E2E257E2E2E2E2E2E2E2E29EE26AE2E2E2E2E2E2E29EE26AE2E2E2E2E2E2E2E2E2E2E2E2E2E20FE2E2E2E2E2E2E2E2E2E2E2E2E26AE2E29EE2E2E2E2E2E2E26A9EE2E2E2E2E2E2E2E2E257E2E2E2E29E6AE2E2E2E2E2E2E2E2E2E2E20F0F0F0F0F0F0F0F0FE20F0F0F0F0F0F0F0F0F0F0F0F0F
310
0F0F0FE2E2E2E2E2E2E2E2E2E20FE2E2E2E2E2E2E2E20FE2E2E2E2E2E2E2E2E2E2E2E2E2E2E2F5E2E2E2E2E2E2E2E2E2E2E2E2E2E2E2E2E2E2E2E2E2E2E2E2E2E2E2E2E2E2E2E2E2E2E2E2E2E2E2E2E2E2E2E2E2E2E2E2E2E2E2E2E2E2E2E2E2E2E2E2E2E2E2E2E2E2E2E2E2E2E2E2F5E2E2E2E20FE2E2E20FE2E2E2E20FE2
310
E2E2E2E2E2E2E2E2E26AE29EE2E2E2E257E2E2E2E2E2E2E29E9E6AE2E2E2E2E2E2E2E29EE26AE2E2E2E2E2E2E2E2E2E2E2E2E2E20FE2E2E2E2E2E2E2E2E2E2E2E2E26AE2E29EE2E2E2E2E2E2E26A9E9EE2E2E2E2E2E20F0F0F0F0F0F0F9E6A0F0F0F0F0F0F0F0F0F0F0F0F0F0F0FE20F0F0F0FE20F0F0F0F0FE20F0F0F0F0F
310
0F0F0F0F0FE2E2E2E2E2E2E2E2E2E20FE2E2E2E2E2E2E2E20FE2E2E2E2E2E2E2E2E2E2E2E2E2E2E2F5E2E2E2E2E2E2E2E2E2E2E2E2E2E2E2E2E2E2E2E2E2E2E2E2E2E2E2E2E2E2E2E2E2E2E2E2E2E2E2E2E2E2E2E2E2E2E2E2E2E2E2E2E2E2E2E2E2E2E2E2E2E2E2E2E2E2E2E2E2E2E2E2F5E2E2E2E20FE2E2E20FE2E2E2E2
310
0FE2E2E2E2E2E2E2E2E2E26AE29E9E9E9E9E9E9E9E9E9E9E9E9E9EE26AE2E2E2E2E2E2E2E29EE26AE2E2E2E2E2E2E2E2E2E2E2E2E2E20FE2E2E2E2E2E2E2E2E2E2E2E2E20F0F0F0F0F0F0F0F0F0F0F0F6A9E9E9E9E9E9E9E9E9E9E9E9E9E9E9E6AE2E2E2E2E2E2E2E2E2E2E20F0F0F0F0F0F0F0F0FE20F0F0F0F0F0F0F0F0F
310
0F0F0F0F0F0F0FE2E2E2E2E2E2E2E2E2E20FE2E2E2E2E2E2E2E20FE2E2E2E2E2E2E2E2E2E2E2E2E2E2E2F5E2E2E2E2E2E2E2E2E2E2E2E2E2E2E2E2E2E2E2E2E2E2E2E2E2E2E2E2E2E2E2E2E2E2E2E2E2E2E2E2E2E2E2E2E2E2E2E2E2E2E2E2E2E2E2E2E2E2E2E2E2E2E2E2E2E2E2E2E2E2E2E2F5E2E2E2E20FE2E2E20FE2E2
310
E2E20FE2E2E2E2E2E2E2E2E2E26AE2E2E2E2E2E257E2E2E2E2E2E2E26A6AE2E2E2E2E2E2E2E2E29EE26AE2E2E2E2E2E2E2E2E2E2E2E2E2E20FE2E2E2E2E2E2E2E2E2E2E2E2E26AE2E29EE2E2E2E2E2E2E2E26A6AE2E2E2E2E2E2E2E257E2E2E2E2E26AE2E2E2E2E2E2E2E2E2E2E2E2E2E2E2E2E2E2E2E2E2E2E2E2E2E2E2E2
310
E2E2E2E2E2E2E2E2E2E2E2E2E2E2E2E2E2E2E20FE2E2E2E2E2E20F0F0FE2E2E2E2E2E2E2E2E2E2E2E2E2E2E2F5E2E2E2E2E2E2E2E2E2E2E2E2E2E2E2E2E2E2E2E2E2E2E2E2E2E2E2E2E2E2E2E2E2E2E2E2E2E2E2E2E2E2E2E2E2E2E2E2E2E2E2E2E2E2E2E2E2E2E2E2E2E2E2E2E2E2E2E2E2E2E2E2F5E2E20F0F0F0FE2E20F
310
E2E2E20F0F0FE2E2E2E2E2E2E2E2E26A6A6A6A6A6A6A6A6A6A6A6A6A6A6A6AE2E2E2E2E2E2E2E2E2E29EE26AE2E2E2E2E2E2E2E2E2E2E2E2E2E20FE2E2E2E2E2E2E2E2E2E2E2E2E26AE2E29EE2E2E2E2E2E2E2E2E2E26A6A6A6A6A6A6A6A6A6A6A6A6A6A6AE2E2E2E2E2E2E2E2E2E2E2E2E2E2E2E2E2E2E2E2E2E2E2E2E2E2
310
E2E2E2E2E2E2E2E2E2E2E2E2E2E2E2E2E2E2E2E2E20FE2E2E2E2E2E2E20F0F0FE2E2E2E2E2E2E2E2E2E2E2E2E2E2F5E2E2E2E2E2E2E2E2E2E2E2E2E2E2E2E2E2E2E2E2E2E2E2E2E2E2E2E2E2E2E2E2E2E2E2E2E2E2E2E2E2E2E2E2E2E2E2E2E2E2E2E2E2E2E2E2E2E2E2E2E2E2E2E2E2E2E2E2E2E2E2E2F5E2E20F0F0F0FE2
310
E20FE2E2E2E20F0FE2E2E2E2E2E20F0F0F0F0F0F0F0F0F0F0F0F0F0F0F0F0F0F0F0F0F0F0F0F0F0F0F0F0F0F0F0F0F0F0F0F0F0F0F0F0F0F0F0F0F0F0F0F0F0F0F0F0F0F0F0F0F0F0F0F0F0F0F0F0F0F0F0F0F0F0F0F0F0F0F0F0F0F0F0F0F0F0F0F0F0F0F0F0F0F0F0FE2E2E2E2E2E2E2E2E2E2E2E2E2E2E2E2E2E2E2E2E2
310
E2E2E2E2E2E2E2E2E2E2E2E2E2E2E2E2E2E2E2E2E2E2E20FE2E2E2E2E2E20F0F0FE2E2E2E2E2E2E2E2E2E2E2E2E2E2E2F5E2E2E2E2E2E2E2E2E2E2E2E2E2E2E2E2E2E2E2E2E2E2E2E2E2E2E2E2E2E2E2E2E2E2E2E2E2E2E2E2E2E2E2E2E2E2E2E2E2E2E2E2E2E2E2E2E2E2E2E2E2E2E2E2E2E2E2E2E2E2E2E2F5E2E20F0FE2
310
0FE2E20FE2E2E20F0F0FE2E2E2E2E2E2E2E2E2E2E2E2E2E2E2E257E2E2E2E2E2E2E2E2E2E2E2E2E2E2E2E2E2E29EE26AE2E2E2E2E2E2E2E2E2E2E2E2E2E20FE2E2E2E2E2E2E2E2E2E2E2E2E26AE2E29EE2E2E2E2E2E2E2E2E2E2E2E2E2E2E2E2E2E257E2E2E2E2E2E2E2E2E2E2E2E2E2E2E2E2E20F0F0F0FE20F0F0F0F0F0F
310
E20F0F0F0FE2E2E2E2E2E2E2E2E2E2E2E2E2E2E2E2E2E2E2E20FE2E2E2E2E2E2E2E20FE2E2E2E2E2E2E2E2E2E2E2E2E2E2E2F5E2E2E2E2E2E2E2E2E2E2E2E2E2E2E2E2E2E2E2E2E2E2E2E2E2E2E2E2E2E2E2E2E2E2E2E2E2E2E2E2E2E2E2E2E2E2E2E2E2E2E2E2E2E2E2E2E2E2E2E2E2E2E2E2E2E2E2E2E2E2E2E2F5E2E2E2
310
E20FE2E2E20FE2E2E2E20FE2E2E2E2E2E2E2E2E2E26A6A6A6A6A6A6A6A6A6A6A6A6A6A6A6AE2E2E2E2E2E2E2E2E2E29EE26AE2E2E2E2E2E2E2E2E2E2E2E2E2E20FE2E2E2E2E2E2E2E2E2E2E2E2E26AE2E29EE2E2E2E2E2E2E2E2E26A6A6A6A6A6A6A6A6A6A6A6A6A6A6A6AE2E2E2E2E2E2E2E2E2E2E2E20F0F0FE20F0F0F0F
310
0FE2E2E20F0F0FE2E2E2E2E2E2E2E2E2E2E2E2E2E2E2E2E2E2E2E20FE2E2E2E2E2E2E2E20FE2E2E2E2E2E2E2E2E2E2E2E2E2E2E2F5E2E2E2E2E2E2E2E2E2E2E2E2E2E2E2E2E2E2E2E2E2E2E2E2E2E2E2E2E2E2E2E2E2E2E2E2E2E2E2E2E2E2E2E2E2E2E2E2E2E2E2E2E2E2E2E2E2E2E2E2E2E2E2E2E2E2E2E2E2E2E2E2F5E2
310
E2E2E20FE2E2E20FE2E2E2E20FE2E2E2E2E2E2E2E2E2E26AE29E9E9E9E9E9E9E9E9E9E9E9E9EE26A6AE2E2E2E2E2E2E2E29EE26AE2E2E2E2E2E2E2E2E2E2E2E2E2E20FE2E2E2E2E2E2E2E2E2E2E2E2E26AE2E29EE2E2E2E2E2E2E2E26A6A9E9E9E9E9E9E9E9E9E9E9E9E9E9E6AE2E2E2E2E2E2E2E2E2E2E20F0F0F0FE20F0F
310
0F0F0F0FE20F0F0F0FE2E2E2E2E2E2E2E2E2E2E2E2E2E2E2E2E2E2E20F0F0FE2E2E2E2E2E2E20FE2E2E2E2E2E2E2E2E2E2E2E2E2E2E2F5E2E2E2E2E2E2E2E2E2E2E2E2E2E2E2E2E2E2E2E2E2E2E2E2E2E2E2E2E2E2E2E2E2E2E2E2E2E2E2E2E2E2E2E2E2E2E2E2E2E2E2E2E2E2E2E2E2E2E2E2E2E2E2E2E2E2E2E2E2E2E2E2
310
F5E2E2E2E20FE2E2E20F0FE2E2E20FE2E2E2E2E2E2E2E2E2E26AE29EE2E2E2E257E2E2E2E2E2E29E9EE26AE2E2E2E2E2E2E2E29EE26AE2E2E2E2E2E2E2E2E2E2E2E2E2E20FE2E2E2E2E2E2E2E2E2E2E2E2E26AE2E20F0F0F0F0F0FE2E26A6A9E9EE2E2E2E2E2E2E257E2E2E2E29E6AE2E2E2E2E2E2E2E20F0F0F0F0F0F0F0F
310
E20F0FE20F0F0F0F0F0F0FE2E2E2E2E2E2E2E2E2E2E2E2E2E2E2E2E2E2E20F0F0FE2E2E2E2E2E2E20FE2E2E2E2E2E2E2E2E2E2E2E2E2E2E2F5E2E2E2E2E2E2E2E2E2E2E2E2E2E2E2E2E2E2E2E2E2E2E2E2E2E2E2E2E2E2E2E2E2E2E2E2E2E2E2E2E2E2E2E2E2E2E2E2E2E2E2E2E2E2E2E2E2E2E2E2E2E2E2E2E2E2E2E2E2E2
310
E2E2F5E2E2E2E20FE2E2E20F0FE2E2E20FE2E2E2E2E2E2E2E2E2E26AE29EE2E2E2E257E2E2E2E2E2E2E2E29E6A6AE2E2E2E2E2E2E29EE26AE2E2E2E2E2E2E2E2E2E2E2E2E2E20FE2E2E2E2E2E2E2E2E2E2E2E2E26AE2E29E0F0FE2E2E20F0F6A9E9E0F0FE2E2E2E2E2E257E2E2E2E29E6AE2E2E2E2E2E2E2E20F0F0F0F0F0F
310
0F0FE20F0F0F0F0F0F0F0F0FE2E2E2E2E2E2E2E2E2E2E2E2E2E2E2E2E2E2E2E20F0F0FE2E2E2E2E2E2E20FE2E2E2E2E2E2E2E2E2E2E2E2E2E2E2F5E2E2E2E2E2E2E2E2E2E2E2E2E2E2E2E2E2E2E2E2E2E2E2E2E2E2E2E2E2E2E2E2E2E2E2E2E2E2E2E2E2E2E2E2E2E2E2E2E2E2E2E2E2E2E2E2E2E2E2E2E2E2E2E2E2E2E2E2
310
E2E2E2E2F5E2E2E2E20FE2E2E20F0FE2E2E20FE2E2E2E20F0F0F0F0F0F6A0F9E0F0F0F0F0F0F0F0F0F0F0F0F0F9E0F6A0F0FE2E2E2E2E29EE26AE2E2E2E2E2E2E2E2E2E2E2E2E2E20FE2E2E2E2E2E2E2E2E2E2E2E2E26AE2E29EE2E2E2E2E2E2E26A9EE2E2E20F0F0F0F0F0F57E2E2E2E29E6AE2E2E2E2E2E2E2E20F0F0F0F
310
0F0F0F0FE20F0F0F0F0F0F0F0F0FE2E2E2E2E2E2E2E2E2E2E2E2E2E2E2E2E2E2E2E2E20FE2E2E2E2E2E2E2E20FE2E2E2E2E2E2E2E2E2E2E2E2E2E2E2F5E2E2E2E2E2E2E2E2E2E2E2E2E2E2E2E2E2E2E2E2E2E2E2E2E2E2E2E2E2E2E2E2E2E2E2E2E2E2E2E2E2E2E2E2E2E2E2E2E2E2E2E2E2E2E2E2E2E2E2E2E2E2E2E2E2E2
310
E2E2E2E2E2E2F5E2E2E2E20FE2E2E20FE2E2E2E20FE2E2E2E20FE2E2E2E2E26AE29EE2E2E2E257E2E2E2E2E2E2E2E29EE26AE2E2E2E2E2E2E29EE26AE2E2E2E2E2E2E2E2E2E2E2E2E2E20FE2E2E2E2E2E2E2E2E2E2E2E2E26AE2E29EE2E2E2E2E2E2E26A9EE2E2E2E2E2E2E2E2E20F0F0F0F0F9E6AE2E2E2E2E2E2E20FE20F
310
0F0FE20F0F0F0F0F0F0F0F0F0F0FE20F0F0FE2E2E2E2E2E2E2E2E2E2E2E2E2E2E2E2E2E2E20FE2E2E2E2E2E2E2E20FE2E2E2E2E2E2E2E2E2E2E2E2E2E2E2F5E2E2E2E2E2E2E2E2E2E2E2E2E2E2E2E2E2E2E2E2E2E2E2E2E2E2E2E2E2E2E2E2E2E2E2E2E2E2E2E2E2E2E2E2E2E2E2E2E2E2E2E2E2E2E2E2E2E2E2E2E2E2E2E2
310
E2E2E2E2E2E2E2E2F5E2E2E2E20FE2E2E20FE2E2E2E20FE2E2E20F0FE2E2E2E2E26AE29EE2E2E2E257E2E2E2E2E2E2E29E9E6AE2E2E2E2E2E2E2E29EE26AE2E2E2E2E2E2E2E2E2E2E2E2E2E20FE2E2E2E2E2E2E2E2E2E2E2E2E26AE2E29EE2E2E2E2E2E2E26A9E9EE2E2E2E2E2E2E2E257E2E2E2E29E6A0F0F0F0F0F0F0F0F
310
0F0F0F0FE20F0F0F0F0F0F0F0F0FE20F0F0F0F0FE2E2E2E2E2E2E2E2E2E2E2E2E2E2E2E2E2E2E20FE2E2E2E2E2E2E2E20FE2E2E2E2E2E2E2E2E2E2E2E2E2E2E2F5E2E2E2E2E2E2E2E2E2E2E2E2E2E2E2E2E2E2E2E2E2E2E2E2E2E2E2E2E2E2E2E2E2E2E2E2E2E2E2E2E2E2E2E2E2E2E2E2E2E2E2E2E2E2E2E2E2E2E2E2E2E2
310
E2E2E2E2E2E2E2E2E2E2F5E2E2E2E20FE2E2E20FE2E2E2E20FE2E2E2E20FE2E2E2E2E26AE29E9E9E9E9E9E9E9E9E9E9E9E9E9EE26AE2E2E2E2E2E2E2E2E29E6AE2E2E2E2E2E2E2E2E2E2E2E2E2E20FE2E2E2E2E2E2E2E2E2E2E2E2E26AE2E29EE2E2E2E2E2E2E2E26A9E9E9E9E9E9E9E9E9E9E9E9E9E9E9E6AE2E2E2E2E2E2
310
E20F0F0F0F0FE20F0F0F0F0F0F0F0F0FE20F0F0F0F0FE2E2E2E2E2E2E2E2E2E2E2E2E2E2E2E2E2E2E20FE2E2E2E2E2E2E2E20FE2E2E2E2E2E2E2E2E2E2E2E2E2E2E2F5E2E2E2E2E2E2E2E2E2E2E2E2E2E2E2E2E2E2E2E2E2E2E2E2E2E2E2E2E2E2E2E2E2E2E2E2E2E2E2E2E2E2E2E2E2E2E2E2E2E2E2E2E2E2E2E2E2E2E2E2
310
E2E2E2E2E2E2E2E2E2E2E2E2F5E2E2E2E20FE2E2E20FE2E2E2E20FE2E2E2E20FE2E2E2E2E26AE2E2E2E2E2E257E2E2E2E2E2E2E26A6AE2E2E2E2E2E2E2E2E2E2E29EE2E2E2E2E2E2E2E2E2E2E2E2E2E20FE2E2E2E2E2E2E2E2E2E2E2E2E26AE2E29EE2E2E2E2E2E2E2E26A6A6AE2E2E2E2E2E2E257E2E2E2E2E26AE2E2E2E2
310
E2E2E2E2E2E2E2E2E2E2E2E2E2E2E2E2E2E2E2E2E2E2E2E2E2E2E2E2E2E2E2E2E2E2E2E2E2E2E2E2E2E2E20FE2E2E2E2E2E2E2E20FE2E2E2E2E2E2E2E2E2E2E2E2E2E2E2F5E2E2E2E2E2E2E2E2E2E2E2E2E2E2E2E2E2E2E2E2E2E2E2E2E2E2E2E2E2E2E2E2E2E2E2E2E2E2E2E2E2E2E2E2E2E2E2E2E2E2E2E2E2E2E2E2E2E2
310
E2E2E2E2E2E2E2E2E2E2E2E2E2E2F5E2E2E2E20FE2E2E20FE2E2E2E20FE2E20F0F0FE2E2E2E2E26A6A6A6A6A6A6A6A6A6A6A6A6A6A6AE2E2E2E2E2E2E2E2E2E2E2E2E26A9EE2E2E2E2E2E2E2E2E2E2E2E2E20FE2E2E2E2E2E2E2E2E2E2E2E2E26AE2E29EE2E2E2E2E2E2E2E2E2E26A6A6A6A6A6A6A6A6A6A6A6A6A6A6AE2E2
310
E2E2E2E2E2E2E2E2E2E2E2E2E2E2E2E2E2E2E2E2E2E2E2E2E2E2E2E2E2E2E2E2E2E2E2E2E2E2E2E2E2E2E2E2E20FE2E2E2E2E2E2E2E20FE2E2E2E2E2E2E2E2E2E2E2E2E2E2E2F5E2E2E2E2E2E2E2E2E2E2E2E2E2E2E2E2E2E2E2E2E2E2E2E2E2E2E2E2E2E2E2E2E2E2E2E2E2E2E2E2E2E2E2E2E2E2E2E2E2E2E2E2E2E2E2E2
310
E2E2E2E2E2E2E2E2E2E2E2E2E2E2E2E2F5E2E2E2E20FE2E2E20FE2E2E2E20FE2E20F0F0F0FE2E2E2E2E2E2E2E2E2E2E257E2E2E2E2E2E2E2E2E2E2E2E2E2E2E2E2E2E2E2E26AE29EE2E2E2E2E2E2E2E2E2E2E2E20FE2E2E2E2E2E2E2E2E2E2E2E2E26AE2E29EE2E2E2E2E2E2E2E2E2E2E2E2E2E2E2E2E2E257E2E2E2E2E2E2
310
E2E2E2E2E2E2E2E2E2E2E2E2E2E2E2E2E2E2E2E2E2E2E2E2E2E2E2E2E2E2E2E2E2E2E2E2E2E2E2E2E2E2E2E2E2E2E20F0FE2E2E2E2E2E2E20FE2E2E2E2E2E2E2E2E2E2E2E2E2E2E2F5E2E2E2E2E2E2E2E2E2E2E2E2E2E2E2E2E2E2E2E2E2E2E2E2E2E2E2E2E2E2E2E2E2E2E2E2E2E2E2E2E2E2E2E2E2E2E2E2E2E2E2E2E2E2
310
E2E2E2E2E2E2E2E2E2E2E2E2E2E2E2E2E2E2F5E2E2E2E20FE2E2E20FE2E2E2E20FE2E2E20F0F0FE2E2E2E2E2E2E2E2E2E2E257E2E2E2E2E2E2E2E2E2E2E2E2E2E2E2E2E2E2E2E26AE2E29EE2E2E2E2E2E2E2E2E2E2E20FE2E2E2E2E2E2E2E2E2E2E2E2E26AE2E29EE2E2E2E2E2E2E2E2E2E2E2E2E2E2E2E2E2E257E2E2E2E2
310
E2E2E2E2E2E2E2E2E2E2E2E2E2E2E2E2E2E2E2E2E2E2E2E2E2E2E2E2E2E2E2E2E2E2E2E2E2E2E2E2E2E2E2E2E2E2E2E2E20F0FE2E2E2E2E2E2E20FE2E2E2E2E2E2E2E2E2E2E2E2E2E2E2F5E2E2E2E2E2E2E2E2E2E2E2E2E2E2E2E2E2E2E2E2E2E2E2E2E2E2E2E2E2E2E2E2E2E2E2E2E2E2E2E2E2E2E2E2E2E2E2E2E2E2E2E2
310
E2E2E2E2E2E2E2E2E2E2E2E2E2E2E2E2E2E2E2E2F5E2E2E2E20FE2E2E20FE2E2E2E20FE2E2E2E20FE2E2E2E2E26A6A6A6A6A6A6A6A6A6A6A6A6A6A6A6AE2E2E2E2E2E2E2E2E2E2E2E26AE2E2E29EE2E2E2E2E2E2E2E2E2E20FE2E2E2E2E2E2E2E2E2E2E2E2E26AE2E29EE2E2E2E2E2E2E2E2E26A6A6A6A6A6A6A6A6A6A6A6A
310
6A6A6A6AE2E2E2E2E2E2E2E2E2E2E2E2E2E2E2E2E2E2E2E2E2E2E2E2E2E2E2E2E2E2E2E2E2E2E2E2E2E2E2E2E2E2E2E2E2E2E20FE2E2E2E2E2E2E2E20FE2E2E2E2E2E2E2E2E2E2E2E2E2E2E2F5E2E2E2E2E2E2E2E2E2E2E2E2E2E2E2E2E2E2E2E2E2E2E2E2E2E2E2E2E2E2E2E2E2E2E2E2E2E2E2E2E2E2E2E2E2E2E2E2E2E2
310
E2E2E2E2E2E2E2E2E2E2E2E2E2E2E2E2E2E2E2E2E2E2F5E2E2E2E20FE2E2E20FE2E2E2E20FE2E2E2E20FE2E2E2E2E26AE29E9E9E9E9E9E9E9E9E9E9E9E9EE26A6AE2E2E2E2E2E2E2E2E2E26A6A6A6A6A9E6A6A6A6A6A6A6A6A6A0F6A6A6A6A6A6A6A6A6A6A6A6A6A0F0F0F0F0F0F0F0F0F0F0F0F6A6A9E9E9E9E9E9E9E9E9E
310
9E9E9E9E9E6A0F0F0F0F0F0F0F0F0F0F0F0F0F0F0F0F0F0F0F0F0F0F0F0F0F0F0F0F0F0F0F0F0F0F0F0F0F0F0F0F0F0F0F0F0F0F0F0FE2E2E2E2E2E2E20F0FE2E2E2E2E2E2E2E2E2E2E2E2E2E2E2F5E2E2E2E2E2E2E2E2E2E2E2E2E2E2E2E2E2E2E2E2E2E2E2E2E2E2E2E2E2E2E2E2E2E2E2E2E2E2E2E2E2E2E2E2E2E2E2E2
310
E2E2E2E2E2E2E2E2E2E2E2E2E2E2E2E2E2E2E2E2E2E2E2E2F5E2E2E2E20FE2E2E20FE2E2E2E20F0FE2E20F0FE2E2E2E2E26AE29EE2E2E2E257E2E2E2E2E2E29E9E9E6AE2E2E2E2E2E2E2E2E2E2E2E2E2E2E2E29EE2E2E2E2E2E2E2E20FE2E2E2E2E2E2E2E2E2E2E2E2E2E2E2E29EE2E2E2E2E2E2E26A6A9E9EE2E2E2E2E2E2
310
E257E2E2E2E29E6AE2E2E2E2E2E2E2E2E2E2E2E2E2E2E2E2E2E2E2E2E2E2E2E2E2E2E2E2E2E2E2E2E2E2E2E2E2E2E2E2E2E2E2E2E2E2E2E2E2E2E2E2E2E2E2E20FE2E2E2E2E2E2E2E2E2E2E2E2E2E2E2F5E2E2E2E2E2E2E2E2E2E2E2E2E2E2E2E2E2E2E2E2E2E2E2E2E2E2E2E2E2E2E2E2E2E2E2E2E2E2E2E2E2E2E2E2E2E2
310
E2E2E2E2E2E2E2E2E2E2E2E2E2E2E2E2E2E2E2E2E2E2E2E2E2E2F5E2E2E2E20FE2E2E20FE2E2E2E20F0FE2E2E20FE2E2E2E2E26AE29EE2E2E2E257E2E2E2E2E2E2E2E29E6A6AE2E2E2E2E2E2E2E2E2E2E2E2E2E2E2E29E9E9E9E9E9E9E9E0F9E9E9E9E9E9E9E9E9E9E9E9E9E9E9E9E0F0F0F0F0F0F0F0F6A9E9E0F0F0F0F0F
310
0F0F0F0F0F0F0F0F9E6A0F0F0F0F0F0F0F0F0F0F0F0F0F0F0F0F0F0F0F0F0F0F0F0F0F0F0F0F0F0F0F0F0F0F0F0F0F0F0F0F0F0F0F0F0F0F0F0F0F0F0F0F0F0F0F0F0FE2E2E2E2E2E2E2E2E2E2E2E2E2E2E2F5E2E2E2E2E2E2E2E2E2E2E2E2E2E2E2E2E2E2E2E2E2E2E2E2E2E2E2E2E2E2E2E2E2E2E2E2E2E2E2E2E2E2E2E2
310
E2E2E2E2E2E2E2E2E2E2E2E2E2E2E2E2E2E2E2E2E2E2E2E2E2E2E2E2F5E2E2E2E20FE2E2E20FE2E2E2E20F0F0F0F0F0F0F0F0F0F0F6A0F9E0F0F0F0F0F0F0F0F0F0F0F0F0F9E0F6A0F0FE2E2E2E2E2E2E2E2E2E2E2E2E2E2E2E2E2E2E2E2E2E20FE2E2E2E2E2E2E2E2E2E2E2E2E2E2E2E2E2E2E2E2E2E2E2E26A9EE2E2E2E2
310
E2E2E2E2E257E20F0F0F9E6AE2E2E2E2E2E2E2E2E2E2E2E2E2E2E2E2E2E2E2E2E2E2E2E2E2E2E2E2E2E2E2E2E2E2E2E2E2E2E2E2E2E2E2E2E2E2E2E2E2E2E2E2E2E2E2E2E2E2E2E2E2E2E2E2E2E2E2E2E2E2E2E2F5E2E2E2E2E2E2E2E2E2E2E2E2E2E2E2E2E2E2E2E2E2E2E2E2E2E2E2E2E2E2E2E2E2E2E2E2E2E2E2E2E2E2
310
E2E2E2E2E2E2E2E2E2E2E2E2E2E2E2E2E2E2E2E2E2E2E2E2E2E2E2E2E2E2F5E2E2E2E20FE2E2E20FE2E2E2E2E2E2E2E2E2E2E2E2E2E2E26AE29EE2E2E2E257E2E2E2E2E2E2E2E29EE26AE2E2E2E2E2E2E2E2E2E2E2E2E2E2E2E2E2E2E2E2E2E2E2E20FE2E2E2E2E2E2E2E2E2E2E2E2E2E2E2E2E2E2E2E2E2E2E2E26A9EE2E2
310
E2E2E2E2E2E2E257E20F0FE29E6A0F0FE2E2E2E2E2E20F0F0F0F0FE20F0F0F0F0F0FE2E20F0F0F0FE2E2E2E2E2E2E2E2E2E2E2E2E2E2E2E2E2E2E2E2E2E2E2E2E2E2E2E2E2E2E2E2E2E2E2E2E2E2E2E2E2E2E2E2E2E2F5E2E2E2E2E2E2E2E2E2E2E2E2E2E2E2E2E2E2E2E2E2E2E2E2E2E2E2E2E2E2E2E2E2E2E2E2E2E2E2E2
310
E2E2E2E2E2E2E2E2E2E2E2E2E2E2E2E2E2E2E2E2E2E2E2E2E2E2E2E2E2E2E2E2F5E2E2E2E20FE2E2E20FE2E2E2E2E2E2E2E2E2E2E2E2E2E2E26AE29EE2E2E2E257E2E2E2E2E2E2E29E9E6AE2E2E2E2E2E2E2E2E2E2E2E2E2E2E2E2E2E2E2E2E2E2E2E2E20FE2E2E2E2E2E2E2E2E2E2E2E2E2E2E2E2E2E2E2E2E2E2E2E26AE2
310
9EE2E2E2E2E2E2E2E257E2E2E2E29E6A0FE20F0F0F0F0F0F0FE20F0F0F0F0F0F0F0F0F0FE2E20F0F0F0FE2E2E2E2E2E2E2E2E2E2E2E2E2E2E2E2E2E2E2E2E2E2E2E2E2E2E2E2E2E2E2E2E2E2E2E2E2E2E2E2E2E2E2E2E2E2F5E2E2E2E2E2E2E2E2E2E2E2E2E2E2E2E2E2E2E2E2E2E2E2E2E2E2E2E2E2E2E2E2E2E2E2E2E2E2
310
E2E2E2E2E2E2E2E2E2E2E2E2E2E2E2E2E2E2E2E2E2E2E2E2E2E2E2E2E2E2E2E2E2E2F5E2E2E2E20FE2E2E20FE2E2E2E2E2E2E2E2E2E2E2E2E2E2E26AE29E9E9E9E9E9E9E9E9E9E9E9E9E9E6A6AE2E2E2E2E2E2E2E2E2E2E2E2E2E2E2E2E2E2E2E2E2E2E2E2E20FE2E2E2E2E2E2E2E2E2E2E2E2E2E2E2E2E2E2E2E2E2E2E2E2
310
E26A9E9E9E9E9E9E9E9E9E9E9E9E9E9E9E6A0FE2E2E2E2E2E2E20F0F0F0F0F0F0F0F0F0F0F0F0FE20F0F0F0FE2E2E2E2E2E2E2E2E2E2E2E2E2E2E2E2E2E2E2E2E2E2E2E2E2E2E2E2E2E2E2E2E2E2E2E2E2E2E2E2E2E2E2E2E2E2F5E2E2E2E2E2E2E2E2E2E2E2E2E2E2E2E2E2E2E2E2E2E2E2E2E2E2E2E2E2E2E2E2E2E2E2E2
310
E2E2E2E2E2E2E2E2E2E2E2E2E2E2E2E2E2E2E2E2E2E2E2E2E2E2E2E2E2E2E2E2E2E2E2E2F5E2E2E2E20FE2E2E20FE2E2E2E2E2E2E2E2E2E2E2E2E2E2E26AE20FE2E2E2E257E2E2E2E2E2E2E26A6AE2E2E2E2E2E2E2E2E2E2E2E2E2E2E2E2E2E2E2E2E2E2E2E2E2E20FE2E2E2E2E2E2E2E2E2E2E2E2E2E2E2E2E2E2E2E2E2E2
310
E2E2E2E26A6AE2E2E2E2E2E2E257E2E2E2E20F6AE20F0FE2E2E2E2E2E2E2E2E2E2E2E2E2E2E2E2E2E2E2E2E2E2E2E2E2E2E2E2E2E2E2E2E2E2E2E2E2E2E2E2E2E2E2E2E2E2E2E2E2E2E2E2E2E2E2E2E2E2E2E2E2E2E2E2E2E2E2E2E2F5E2E2E2E2E2E2E2E2E2E2E2E2E2E2E2E2E2E2E2E2E2E2E2E2E2E2E2E2E2E2E2E2E2E2
310
E2E2E2E2E2E2E2E2E2E2E2E2E2E2E2E2E2E2E2E2E2E2E2E2E2E2E2E2E2E2E2E2E2E2E2E2E2E2F5E2E2E2E20FE2E2E20FE2E2E2E2E2E2E2E2E2E2E2E2E2E2E26A6A6A6A6A6A6A6A6A6A6A6A6A6A6AE2E2E2E2E2E2E2E2E2E2E2E2E2E2E2E2E2E2E2E2E2E2E2E2E2E2E2E20FE2E2E2E2E2E2E2E2E2E2E2E2E2E2E2E2E2E2E2E2
310
E2E2E2E2E2E2E26A6A6A6A6A6A6A6A6A6A6A6A6A6A6AE2E2E20FE2E2E2E2E2E2E2E2E2E2E2E2E2E2E2E2E2E2E2E2E2E2E2E2E2E2E2E2E2E2E2E2E2E2E2E2E2E2E2E2E2E2E2E2E2E2E2E2E2E2E2E2E2E2E2E2E2E2E2E2E2E2E2E2E2E2E2E2F5E2E2E2E2E2E2E2E2E2E2E2E2E2E2E2E2E2E2E2E2E2E2E2E2E2E2E2E2E2E2E2E2
310
E2E2E2E2E2E2E2E2E2E2E2E2E2E2E2E2E2E2E2E2E2E2E2E2E2E2E2E2E2E2E2E2E2E2E2E2E2E2E2E2F5E2E2E2E20FE2E2E20FE2E2E2E2E2E2E2E2E2E2E2E2E2E2E2E2E20FE2E2E2E257E2E2E2E2E2E2E2E2E2E2E2E2E2E2E2E2E20FE2E2E2E2E2E2E2E2E2E2E2E2E2E2E2E2E20FE2E2E2E2E2E2E2E2E2E2E2E2E2E2E2E2E20F
310
E2E2E2E2E2E2E2E2E2E2E2E2E2E2E2E2E257E2E2E2E20F0F0FE2E2E20F0FE2E2E2E2E2E2E2E2E2E2E2E2E2E2E2E2E2E2E2E2E2E2E2E2E2E2E2E2E2E2E2E2E2E2E2E2E2E2E2E2E2E2E2E2E2E2E2E2E2E2E2E2E2E2E2E2E2E2E2E2E2E2E2E2E2E2F5E2E2E2E2E2E2E2E2E2E2E2E2E2E2E2E2E2E2E2E2E2E2E2E2E2E2E2E2E2E2
310
E2E2E2E2E2E2E2E2E2E2E2E2E2E2E2E2E2E2E2E2E2E2E2E2E2E2E2E2E2E2E2E2E2E2E2E2E2E2E2E2E2E2F5E2E2E2E20FE2E2E20FE2E2E2E2E2E2E2E2E2E2E2E2E2E2E2E2E20FE2E2E2E257E2E2E2E2E2E2E2E2E2E2E2E2E2E2E26A6A6A6AE2E2E2E2E2E2E2E26A6A6A6AE2E2E2E20FE2E2E26A6A6A6AE2E2E2E2E2E2E2E26A
310
6A6A6AE2E2E2E2E2E2E2E2E2E2E2E2E2E2E2E257E2E2E2E20F0FE20FE2E2E2E20F0FE2E2E2E20FE20F0F0FE20F0F0F0FE2E2E2E2E2E2E2E2E2E2E2E2E2E2E2E2E2E2E2E2E2E2E2E2E2E2E2E2E2E2E2E2E2E2E2E2E2E2E2E2E2E2E2E2E2E2E2E2E2E2F5E2E2E2E2E2E2E2E2E2E2E2E2E2E2E2E2E2E2E2E2E2E2E2E2E2E2E2E2
310
E2E2E2E2E2E2E2E2E2E2E2E2E2E2E2E2E2E2E2E2E2E2E2E2E2E2E2E2E2E2E2E2E2E2E2E2E2E2E2E2E2E2E2E2F5E2E2E2E20FE2E2E20FE2E2E2E2E2E2E2E2E2E2E2E2E2E2E2E2E20FE2E2E2E257E2E2E2E2E2E2E2E2E2E2E2E2E2E26A6AE20F6A6A6AE2E2E2E2E26A6AE2E2E26A6AE2E20FE2E26A6AE2E2E26A6AE2E2E2E2E2
310
6A6AE20FE26A6AE2E2E2E2E2E2E2E2E2E2E2E2E2E257E2E2E2E20FE2E20FE2E2E2E2E2E20F0F0F0F0F0F0F0F0FE20F0F0F0FE2E2E2E2E2E2E2E2E2E2E2E2E2E2E2E2E2E2E2E2E2E2E2E2E2E2E2E2E2E2E2E2E2E2E2E2E2E2E2E2E2E2E2E2E2E2E2E2E2E2F5E2E2E2E2E2E2E2E2E2E2E2E2E2E2E2E2E2E2E2E2E2E2E2E2E2E2
310
E2E2E2E2E2E2E2E2E2E2E2E2E2E2E2E2E2E2E2E2E2E2E2E2E2E2E2E2E2E2E2E2E2E2E2E2E2E2E2E2E2E2E2E2E2E2F5E2E2E2E20FE2E2E20FE2E2E2E2E2E2E2E2E2E2E2E2E2E2E2E2E20FE2E2E2E257E2E2E2E2E2E2E2E2E2E2E2E2E26AE29E9E9E9E9E6A6AE2E2E26AE29E9E9E9E9E6A6AE20FE26AE29E9E9E9E9E6A6AE2E2
310
E26A6A9E9E9E9E9E6A6AE2E2E2E2E2E2E2E2E2E2E2E2E257E2E2E2E20FE2E2E20FE2E2E2E2E2E2E2E2E20F0F0F0F0FE20F0F0F0FE2E2E2E2E2E2E2E2E2E2E2E2E2E2E2E2E2E2E2E2E2E2E2E2E2E2E2E2E2E2E2E2E2E2E2E2E2E2E2E2E2E2E2E2E2E2E2E2E2E2F5E2E2E2E2E2E2E2E2E2E2E2E2E2E2E2E2E2E2E2E2E2E2E2E2
310
E2E2E2E2E2E2E2E2E2E2E2E2E2E2E2E2E2E2E2E2E2E2E2E2E2E2E2E2E2E2E2E2E2E2E2E2E2E2E2E2E2E2E2E2E2E2E2E2F5E2E2E2E20FE2E2E20FE2E2E2E2E2E2E2E2E2E2E2E2E2E2E2E2E20FE2E2E2E257E2E2E2E2E2E2E2E2E2E2E2E26A6A9EE2E20FE29EE26AE2E26A6A9EE2E2E2E29EE26AE20F6A6A9E9EE2E2E29E9E6A
310
E2E26A6A9E9EE20FE29E9E6AE2E2E2E2E2E2E2E2E2E2E2E2E257E2E2E2E20FE2E2E20FE2E2E2E2E2E2E2E2E2E2E2E2E2E2E2E2E2E2E2E2E2E2E2E2E2E2E2E2E2E2E2E2E2E2E2E2E2E2E2E2E2E2E2E2E2E2E2E2E2E2E2E2E2E2E2E2E2E2E2E2E2E2E2E2E2E2E2E2E2F5E2E2E2E2E2E2E2E2E2E2E2E2E2E2E2E2E2E2E2E2E2E2
310
E2E2E2E2E2E2E2E2E2E2E2E2E2E2E2E2E2E2E2E2E2E2E2E2E2E2E2E2E2E2E2E2E2E2E2E2E2E2E2E2E2E2E2E2E2E2E2E2E2E2F5E2E2E2E20FE2E2E20FE2E2E2E2E2E2E2E2E2E2E2E2E2E2E2E2E20FE2E2E2E257E2E2E2E2E2E2E2E2E2E2E2E26AE29EE2E20FE2E29E6AE2E26AE29EE2E2E2E2E29E6AE20F6AE29EE2E2E2E2E2
310
9E6AE2E26AE29EE2E20FE2E29E6AE2E2E2E2E2E2E2E2E2E2E2E2E257E2E2E2E20FE2E2E2E20FE2E2E2E2E2E2E2E2E2E2E2E2E2E2E2E2E2E2E2E2E2E2E2E2E2E2E2E2E2E2E2E2E2E2E2E2E2E2E2E2E2E2E2E2E2E2E2E2E2E2E2E2E2E2E2E2E2E2E2E2E2E2E2E2E2E2E2E2F5E2E2E2E2E2E2E2E2E2E2E2E2E2E2E2E2E2E2E2E2
310
E2E2E2E2E2E2E2E2E2E2E2E2E2E2E2E2E2E2E2E2E2E2E2E2E2E2E2E2E2E2E2E2E2E2E2E2E2E2E2E2E2E2E2E2E2E2E2E2E2E2E2E2F5E2E2E2E20FE2E2E20FE2E2E2E2E2E2E2E2E2E2E2E2E2E2E2E2E20FE2E2E2E257E2E2E2E2E2E2E2E2E2E2E2E26AE29EE2E20FE2E29E6AE2E26AE29EE2E2E2E2E29E6AE20F6AE29EE2E2E2
310
E2E29E6AE2E26AE29EE2E20FE2E29E6AE2E2E2E2E2E2E2E2E2E2E2E2E257E2E2E2E20FE2E2E2E20FE2E2E2E2E2E2E2E2E2E2E2E2E2E2E2E2E2E2E2E2E2E2E2E2E2E2E2E2E2E2E2E2E2E2E2E2E2E2E2E2E2E2E2E2E2E2E2E2E2E2E2E2E2E2E2E2E2E2E2E2E2E2E2E2E2E2E2E2F5E2E2E2E2E2E2E2E2E2E2E2E2E2E2E2E2E2E2
310
E2E2E2E2E2E2E2E2E2E2E2E2E2E2E2E2E2E2E2E2E2E2E2E2E2E2E2E2E2E2E2E2E2E2E2E2E2E2E2E2E2E2E2E2E2E2E2E2E2E2E2E2E2E2F5E2E2E2E20FE2E2E20FE2E2E2E2E2E2E2E2E2E2E2E2E2E2E2E2E20FE2E2E2E257E2E2E2E2E2E2E2E2E2E2E2E26AE29EE2E20FE2E29E6AE2E26AE29EE2E2E2E2E29E6AE20F6AE29EE2
310
E2E2E2E29E6AE2E26AE29EE2E20FE2E29E6AE2E2E2E2E2E2E2E2E2E2E2E2E257E2E2E2E20FE2E2E2E2E20FE2E2E2E2E2E2E2E2E2E2E2E2E2E2E2E2E2E2E2E2E2E2E2E2E2E2E2E2E2E2E2E2E2E2E2E2E2E2E2E2E2E2E2E2E2E2E2E2E2E2E2E2E2E2E2E2E2E2E2E2E2E2E2E2E2E2E2F5E2E2E2E2E2E2E2E2E2E2E2E2E2E2E2E2
310
E2E2E2E2E2E2E2E2E2E2E2E2E2E2E2E2E2E2E2E2E2E2E2E2E2E2E2E2E2E2E2E2E2E2E2E2E2E2E2E2E2E2E2E2E2E2E2E2E2E2E2E2E2E2E2E2F5E2E2E2E20FE2E2E20FE2E2E2E2E2E2E2E2E2E2E2E2E2E2E2E2E20FE2E2E2E257E2E2E2E2E2E2E2E2E2E2E2E26AE29EE2E20FE2E29E6AE2E26AE29EE2E2E2E2E29E6AE20F6AE2
310
9EE2E2E2E2E29E6AE2E26AE29EE2E20FE2E29E6AE2E2E2E2E2E2E2E2E2E2E2E2E257E2E2E2E20FE2E2E2E2E20FE2E2E2E2E20F0F0F0F0F0F0F0FE20F0F0F0F0F0FE20F0F0F0F0F0F0F0F0FE2E2E2E2E2E2E2E2E2E2E2E2E2E2E2E2E2E2E2E2E2E2E2E2E2E2E2E2E2E2E2E2E2E2E2E2E2F5E2E2E2E2E2E2E2E2E2E2E2E2E2E2
310
E2E2E2E2E2E2E2E2E2E2E2E2E2E2E2E2E2E2E2E2E2E2E2E2E2E2E2E2E2E2E2E2E2E2E2E2E2E2E2E2E2E2E2E2E2E2E2E2E2E2E2E2E2E2E2E2E2E2F5E2E2E2E20FE2E2E20FE2E2E2E2E2E2E2E2E2E2E2E2E2E2E2E2E20FE2E2E2E257E2E2E2E2E2E2E2E2E2E2E2E26AE29EE2E20FE2E29E6AE2E26AE29EE2E2E2E2E29E6AE20F
310
6AE29EE2E2E2E2E29E6AE2E26AE29EE2E20FE2E29E6AE2E2E2E2E2E2E2E2E2E2E2E2E257E2E2E2E20FE2E2E2E2E2E20F0F0F0F0F0F0F0FE20F0F0F0FE20F0F0F0F0FE2E20F0F0F0F0F0F0F0F0FE2E2E2E2E2E2E2E2E2E2E2E2E2E2E2E2E2E2E2E2E2E2E2E2E2E2E2E2E2E2E2E2E2E2E2E2E2F5E2E2E2E2E2E2E2E2E2E2E2E2
310
E2E2E2E2E2E2E2E2E2E2E2E2E2E2E2E2E2E2E2E2E2E2E2E2E2E2E2E2E2E2E2E2E2E2E2E2E2E2E2E2E2E2E2E2E2E2E2E2E2E2E2E2E2E2E2E2E2E2E2E2F5E2E2E2E20FE2E2E20F0FE2E2E2E2E2E2E2E2E2E2E2E2E2E2E2E20FE2E2E2E257E2E2E2E2E2E2E2E2E2E2E2E26AE29EE2E20FE2E29E6AE2E26AE29EE2E2E2E2E29E6A
310
E20F6AE29EE2E2E2E2E29E6AE2E26AE29EE2E20FE2E29E6AE2E2E2E2E2E2E2E2E2E2E2E2E257E2E2E2E20FE2E2E2E2E2E2E2E2E2E2E20F0F0FE20F0F0F0FE20F0F0F0F0F0FE20F0F0F0F0F0F0F0F0FE2E2E2E2E2E2E2E2E2E2E2E2E2E2E2E2E2E2E2E2E2E2E2E2E2E2E2E2E2E2E2E2E2E2E2E2E2F5E2E2E2E2E2E2E2E2E2E2
310
E2E2E2E2E2E2E2E2E2E2E2E2E2E2E2E2E2E2E2E2E2E2E2E2E2E2E2E2E2E2E2E2E2E2E2E2E2E2E2E2E2E2E2E2E2E2E2E2E2E2E2E2E2E2E2E2E2E2E2E2E2E2F5E2E2E2E20FE2E2E20F0FE2E2E2E2E2E2E2E2E2E2E2E2E2E2E2E20FE2E2E2E257E2E2E2E2E2E2E2E2E2E2E2E26AE29EE2E20FE2E29E6AE2E26AE29EE2E2E2E2E2
310
9E6AE20F6AE29EE2E2E2E2E29E6AE2E26AE29EE2E20FE2E29E6AE2E2E2E2E2E2E2E2E2E2E2E2E257E2E2E2E20FE2E2E2E2E2E2E2E2E2E2E2E2E2E2E2E2E2E2E2E2E2E2E2E2E2E2E2E2E2E2E2E2E2E2E2E2E2E2E2E2E2E2E2E2E2E2E2E2E2E2E2E2E2E2E2E2E2E2E2E2E2E2E2E2E2E2E2E2E2E2E2E2E2F5E2E2E2E2E2E2E2E2
310
E2E2E2E2E2E2E2E2E2E2E2E2E2E2E2E2E2E2E2E2E2E2E2E2E2E2E2E2E2E2E2E2E2E2E2E2E2E2E2E2E2E2E2E2E2E2E2E2E2E2E2E2E2E2E2E2E2E2E2E2E2E2E2E2F5E2E2E2E20FE2E2E20F0F0F0F0F0F0F0F0F0F0F0F0F0F0F0F0F0F0F0F0F0F0F0F5757575757575757575757576A579E57570F57579E6A57576A579E575757
310
57579E6A570F6A579E57575757579E6A57576A579E57570F57579E6A575757575757575757575757570FE2E2E2E20FE2E2E2E2E2E2E2E2E2E2E2E2E2E2E2E2E2E2E2E2E2E2E2E2E2E2E2E2E2E2E2E2E2E2E2E2E2E2E2E2E2E2E2E2E2E2E2E2E2E2E2E2E2E2E2E2E2E2E2E2E2E2E2E2E2E2E2E2E2E2E2E2E2F5E2E2E2E2E2E2
310
E2E2E2E2E2E2E2E2E2E2E2E2E2E2E2E2E2E2E2E2E2E2E2E2E2E2E2E2E2E2E2E2E2E2E2E2E2E2E2E2E2E2E2E2E2E2E2E2E2E2E2E2E2E2E2E2E2E2E2E2E2E2E2E2E2E2F5E2E2E2E20FE2E2E2E2E2E2E2E2E2E2E2E2E2E2E2E2E2E2E2E2E20FE2E2E2E20FE2E2E2E2E2E2E2E2E2E2E2E26AE29EE2E20FE2E29E6AE2E26AE29EE2
310
E2E2E2E29E6AE20F6AE29EE2E2E2E2E29E6AE2E26AE29EE2E20FE2E29E6AE2E2E2E2E2E2E2E2E2E2E2E2E20FE2E2E2E20FE2E2E2E2E2E2E2E2E2E2E2E2E2E2E2E2E2E2E2E2E2E2E2E2E2E2E2E2E2E2E2E2E2E2E2E2E2E2E2E2E2E2E2E2E2E2E2E2E2E2E2E2E2E2E2E2E2E2E2E2E2E2E2E2E2E2E2E2E2E2E2E2E2F5E2E2E2E2
310
E2E2E2E2E2E2E2E2E2E2E2E2E2E2E2E2E2E2E2E2E2E2E2E2E2E2E2E2E2E2E2E2E2E2E2E2E2E2E2E2E2E2E2E2E2E2E2E2E2E2E2E2E2E2E2E2E2E2E2E2E2E2E2E2E2E2E2E2F5E2E2E2E20FE2E2E2E2E2E2E2E2E2E2E2E2E2E2E2E2E2E2E2E2E20FE2E2E2E20FE2E2E2E2E2E2E2E2E2E2E2E26AE29EE2E20FE2E29E6AE2E26AE2
310
9EE2E2E2E2E29E6AE20F6AE29EE2E2E2E2E29E6AE2E26AE29EE2E20FE2E29E6AE2E2E2E2E2E2E2E2E2E2E2E2E20FE2E2E2E20FE2E2E2E2E2E2E2E2E2E2E2E2E2E2E2E2E2E2E2E2E2E2E2E2E2E2E2E2E2E2E2E2E2E2E2E2E2E2E2E2E2E2E2E2E2E2E2E2E2E2E2E2E2E2E2E2E2E2E2E2E2E2E2E2E2E2E2E2E2E2E2E2E2F5E2E2
310
E2E2E2E2E2E2E2E2E2E2E2E2E2E2E2E2E2E2E2E2E2E2E2E2E2E2E2E2E2E2E2E2E2E2E2E2E2E2E2E2E2E2E2E2E2E2E2E2E2E2E2E2E2E2E2E2E2E2E2E2E2E2E2E2E2E2E2E2E2E2F5E2E2E20F0FE2E2E2E2E2E2E2E2E2E2E2E2E2E2E2E2E2E2E2E2E20FE2E2E2E20FE2E2E2E2E2E2E2E2E2E2E2E26AE29EE2E20FE2E29E6AE2E2
310
6AE29EE2E2E2E2E29E6AE20F6AE29EE2E2E2E2E29E6AE2E26AE29EE2E20FE2E29E6AE2E2E2E2E2E2E2E2E2E2E2E2E20FE2E2E2E20FE2E2E2E2E2E2E2E2E2E2E2E2E2E2E2E2E2E2E2E2E2E2E2E2E2E2E2E2E2E2E2E2E2E2E2E2E2E2E2E2E2E2E2E2E2E2E2E2E2E2E2E2E2E2E2E2E2E2E2E2E2E2E2E2E2E2E2E2E2E2E2E2E2F5
310
E2E2E2E2E2E2E2E2E2E2E2E2E2E2E2E2E2E2E2E2E2E2E2E2E2E2E2E2E2E2E2E2E2E2E2E2E2E2E2E2E2E2E2E2E2E2E2E2E2E2E2E2E2E2E2E2E2E2E2E2E2E2E2E2E2E2E2E2E2E2E2E2F5E2E2E2E20FE2E2E2E2E2E2E2E2E2E2E2E2E2E2E2E2E2E2E2E2E20FE2E2E2E20FE2E2E2E2E2E2E2E2E2E2E2E26AE29EE2E20FE2E29E6A
310
E2E26AE29EE2E2E2E2E29E6AE20F6AE29EE2E2E2E2E29E6AE2E26AE29EE2E20FE2E29E6AE2E2E2E2E2E2E2E2E2E2E2E2E20FE2E2E2E20FE2E2E2E2E2E2E2E2E2E2E2E2E2E2E2E2E2E2E2E2E2E2E2E2E2E2E2E2E2E2E2E2E2E2E2E2E2E2E2E2E2E2E2E2E2E2E2E2E2E2E2E2E2E2E2E2E2E2E2E2E2E2E2E2E2E2E2E2E2E2E2E2
310
E2F5E2E2E2E2E2E2E2E2E2E2E2E2E2E2E2E2E2E2E2E2E2E2E2E2E2E2E2E2E2E2E2E2E2E2E2E2E2E2E2E2E2E2E2E2E2E2E2E2E2E2E2E2E2E2E2E2E2E2E2E2E2E2E2E2E2E2E2E2E2E2E2E2F5E2E2E2E20F0F0F0F0F0F0F0F0F0F0F0F0F0F0F0F0F0F0F0F0F0F0F0F0F0F0F0F0F0F0F0F0F0F0F0F0F0F0F0F6A0F9E9E9E9E9E9E
310
9E6AE2E26AE29E9E9E9E9E9E9E6AE20F6AE29E9E9E9E9E9E9E6AE2E26AE29E9E9E9E9E9E9E6AE2E2E2E2E2E2E2E2E2E2E2E2E20FE2E2E2E20FE2E2E2E2E2E2E2E2E2E2E2E2E2E2E2E2E2E2E2E2E2E2E2E2E2E2E2E2E2E2E2E2E2E2E2E2E2E2E2E2E2E2E2E2E2E2E2E2E2E2E2E2E2E2E2E2E2E2E2E2E2E2E2E2E2E2E2E2E2E2
310
E2E2E2F5E2E2E2E2E2E2E2E2E2E2E2E2E2E2E2E2E2E2E2E2E2E2E2E2E2E2E2E2E2E2E2E2E2E2E2E2E2E2E2E2E2E2E2E2E2E2E2E2E2E2E2E2E2E2E2E2E2E2E2E2E2E2E2E2E2E2E2E2E2E2E2E2F5E2E2E2E2E2E2E2E2E2E2E2E2E2E2E2E2E2E2E2E2E2E2E2E2E2E20FE2E2E2E20FE2E2E2E2E2E2E2E2E2E2E2E26A6A6A6A6A6A
310
6A6A6A6AE2E26A6A6A6A6A6A6A6A6A6AE20F6A6A6A6A6A6A6A6A6A6AE2E26A6A6A6A6A6A6A6A6A6AE2E2E2E2E2E2E2E2E2E2E2E2E20FE2E2E2E20FE2E2E2E2E2E2E2E2E2E2E2E2E2E2E2E2E2E2E2E2E2E2E2E2E2E2E2E2E2E2E2E2E2E2E2E2E2E2E2E2E2E2E2E2E2E2E2E2E2E2E2E2E2E2E2E2E2E2E2E2E2E2E2E2E2E2E2E2
310
E2E2E2E2E2F5E2E2E2E2E2E2E2E2E2E2E2E2E2E2E2E2E2E2E2E2E2E2E2E2E2E2E2E2E2E2E2E2E2E2E2E2E2E2E2E2E2E2E2E2E2E2E2E2E2E2E2E2E2E2E2E2E2E2E2E2E2E2E2E2E2E2E2E2E2E2E2E2F5E2E2E2E2E2E2E2E2E2E2E2E2E2E2E2E2E2E2E2E2E2E2E2E2E2E20FE2E2E2E20FE2E2E2E2E2E2E2E2E2E2E2E2E2E2E2E2
310
E20FE2E2E2E2E2E2E2E2E2E2E2E2E2E2E2E2E20FE2E2E2E2E2E2E2E2E2E2E2E2E2E2E2E2E20FE2E2E2E2E2E2E2E2E2E2E2E2E2E2E2E2E20FE2E2E2E20FE2E2E2E2E2E2E2E2E2E2E2E2E2E2E2E2E2E2E2E2E2E2E2E2E2E2E2E2E2E2E2E2E2E2E2E2E2E2E2E2E2E2E2E2E2E2E2E2E2E2E2E2E2E2E2E2E2E2E2E2E2E2E2E2E2E2
310
E2E2E2E2E2E2E2F5E2E2E2E2E2E2E2E2E2E2E2E2E2E2E2E2E2E2E2E2E2E2E2E2E2E2E2E2E2E2E2E2E2E2E2E2E2E2E2E2E2E2E2E2E2E2E2E2E2E2E2E2E2E2E2E2E2E2E2E2E2E2E2E2E2E2E2E2E2E2E2E2F5E2E2E2E2E2E2E2E2E2E2E2E2E2E2E2E2E2E2E2E2E2E2E2E2E2E20FE2E2E2E20FE2E2E2E2E2E2E2E2E2E2E2E2E2E2
310
E2E2E20FE2E2E2E2E2E2E2E2E2E2E2E2E2E2E2E2E20FE2E2E2E2E2E2E2E2E2E2E2E2E2E2E2E2E20FE2E2E2E2E2E2E2E2E2E2E2E2E2E2E2E2E20FE2E2E2E20FE2E2E2E2E2E2E2E2E2E2E2E2E2E2E2E2E2E2E2E2E2E2E2E2E2E2E2E2E2E2E2E2E2E2E2E2E2E2E2E2E2E2E2E2E2E2E2E2E2E2E2E2E2E2E2E2E2E2E2E2E2E2E2E2
310
E2E2E2E2E2E2E2E2E2F5E2E2E2E2E2E2E2E2E2E2E2E2E2E2E2E2E2E2E2E2E2E2E2E2E2E2E2E2E2E2E2E2E2E2E2E2E2E2E2E2E2E2E2E2E2E2E2E2E2E2E2E2E2E2E2E2E2E2E2E2E2E2E2E2E2E2E2E2E2E2E2E2F5E2E2E2E2E2E2E2E2E2E2E2E2E2E2E2E2E2E2E2E2E2E2E2E2E2E20FE2E2E2E20FE2E2E2E2E2E2E2E2E2E2E2E2
310
E2E2E2E2E20FE2E2E2E2E2E2E2E2E2E2E2E2E2E2E2E2E20FE2E2E2E2E2E2E2E2E2E2E2E2E2E2E2E2E20FE2E2E2E2E2E2E2E2E2E2E2E2E2E2E2E2E20FE2E2E2E20FE2E2E2E2E2E2E2E2E2E2E2E2E2E2E2E2E2E2E2E2E2E2E2E2E2E2E2E2E2E2E2E2E2E2E2E2E2E2E2E2E2E2E2E2E2E2E2E2E2E2E2E2E2E2E2E2E2E2E2E2E2E2
310
E2E2E2E2E2E2E2E2E2E2E2F5E2E2E2E2E2E2E2E2E2E2E2E2E2E2E2E2E2E2E2E2E2E2E2E2E2E2E2E2E2E2E2E2E2E2E2E2E2E2E2E2E2E2E2E2E2E2E2E2E2E2E2E2E2E2E2E2E2E2E2E2E2E2E2E2E2E2E2E2E2E2E2E2F5E2E2E2E2E2E2E2E2E2E2E2E2E2E2E2E2E2E2E2E2E2E2E2E2E2E20FE2E2E2E20FE2E2E2E2E2E2E2E2E2E2
310
E2E2E2E2E2E2E20FE2E2E2E2E2E2E2E2E2E2E2E2E2E2E20F0F0F0FE2E2E2E2E2E2E2E2E2E2E2E2E2E2E2E20FE2E2E2E2E2E2E2E2E2E2E2E2E2E2E2E2E20FE2E2E2E20FE2E2E2E2E2E2E2E2E2E2E2E2E2E2E2E2E2E2E2E2E2E2E2E2E2E2E2E2E2E2E2E2E2E2E2E2E2E2E2E2E2E2E2E2E2E2E2E2E2E2E2E2E2E2E2E2E2E2E2E2
310
E2E2E2E2E2E2E2E2E2E2E2E2E2F5E2E2E2E2E2E2E2E2E2E2E2E2E2E2E2E2E2E2E2E2E2E2E2E2E2E2E2E2E2E2E2E2E2E2E2E2E2E2E2E2E2E2E2E2E2E2E2E2E2E2E2E2E2E2E2E2E2E2E2E2E2E2E2E2E2E2E2E2E2E2E2E2F5E2E2E2E2E2E2E2E2E2E2E2E2E2E2E2E2E2E2E2E2E2E2E2E2E2E20FE2E2E2E20FE2E2E2E2E2E2E2E2
310
E2E2E2E2E2E2E2E2E20F0F0F0F0F0F0F0F0F0F0F0F0F0F0F0F0F0F0F0F0F0F0F0F0F0F0F0F0F0F0F0F0F0F0F0F0FE2E2E2E2E2E2E2E2E2E2E2E2E2E2E2E2E20FE2E2E2E20FE2E2E2E2E2E2E2E2E2E2E2E2E2E2E2E2E2E2E2E2E2E2E2E2E2E2E2E2E2E2E2E2E2E2E2E2E2E2E2E2E2E2E2E2E2E2E2E2E2E2E2E2E2E2E2E2E2E2
310
E2E2E2E2E2E2E2E2E2E2E2E2E2E2E2F5E2E2E2E2E2E2E2E2E2E2E2E2E2E2E2E2E2E2E2E2E2E2E2E2E2E2E2E2E2E2E2E2E2E2E2E2E2E2E2E2E2E2E2E2E2E2E2E2E2E2E2E2E2E2E2E2E2E2E2E2E2E2E2E2E2E2E2E2E2E2E2E2F5E2E2E2E2E2E2E2E2E2E2E2E2E2E2E2E2E2E2E2E2E2E2E2E2E2E20FE2E2E2E20FE2E2E2E2E2E2
310
E2E2E2E2E2E2E2E2E2E2E2E20F0FE2E2E2E2E2E2E2E2E2E2E2E2E20F0F0F0FE2E2E2E2E2E2E2E2E2E2E2E2E2E20F0FE2E2E2E2E2E2E2E2E2E2E2E2E2E2E2E2E2E20FE2E2E2E20FE2E2E2E2E2E2E2E2E2E2E2E2E2E2E2E2E2E2E2E2E2E22D2D2D2D2D2D2D2D2D2D2D2DE22D2D2DE22D2D2DE2E2E2E2E2E2E2E2E2E2E2E2E2E2
310
E2E2E2E2E2E2E2E2E2E2E2E2E2E2E2E2E2F5E2E2E2E2E2E2E2E2E2E2E2E2E2E2E2E2E2E2E2E2E2E2E2E2E2E2E2E2E2E2E2E2E2E2E2E2E2E2E2E2E2E2E2E2E2E2E2E2E2E2E2E2E2E2E2E2E2E2E2E2E2E2E2E2E2E2E2E2E2E2E2E2F5E2E2E2E2E2E2E2E2E2E2E2E2E2E2E2E2E2E2E2E2E2E2E2E2E2E20FE2E2E2E20FE2E2E2E2
310
E2E2E2E2E2E2E2E2E2E2E2E2E2E2E2E2E2E2E2E2E2E2E2E2E2E2E2E2E2E2E2E2E2E2E2E2E2E2E2E2E2E2E2E2E2E2E2E2E2E2E2E2E2E2E2E2E2E2E2E2E2E2E2E2E2E2E20FE2E2E2E20FE2E2E2E2E2E2E2E2E2E2E2E2E2E2E2E2E2E2E2E2E2E22D2D2D2D2D2D2D2D2D2D2D2D2DE22D2DE22D2D2DE2E2E2E2E2E2E2E2E2E2E2E2
310
E2E2E2E2E2E2E2E2E2E2E2E2E2E2E2E2E2E2E2F5E2E2E2E2E2E2E2E2E2E2E2E2E2E2E2E2E2E2E2E2E2E2E2E2E2E2E2E2E2E2E2E2E2E2E2E2E2E2E2E2E2E2E2E2E2E2E2E2E2E2E2E2E2E2E2E2E2E2E2E2E2E2E2E2E2E2E2E2E2E2E2E2F5E2E2E2E2E2E2E2E2E2E2E2E2E2E2E2E2E2E2E2E2E2E2E2E2E2E20FE2E2E2E20FE2E2
310
E2E2E2E2E2E2E2E2E2E2E2E2E2E2E2E2E2E2E2E2E2E2E2E2E2E2E2E2E2E2E2E2E20FE2E2E2E2E2E2E2E2E2E2E2E2E2E2E2E2E2E2E2E2E2E2E2E2E2E2E2E2E2E2E2E2E2E2E20FE2E2E2E20FE2E2E2E2E2E2E2E2E2E2E2E2E2E2E2E2E2E2E2E2E2E22D2D2D2D2D2D2D2D2D2D2D2D2D2D2D2DE22D2D2DE2E2E2E2E2E2E2E2E2E2
310
E2E2E2E2E2E2E2E2E2E2E2E2E2E2E2E2E2E2E2E2E2F5E2E2E2E2E2E2E2E2E2E2E2E2E2E2E2E2E2E2E2E2E2E2E2E2E2E2E2E2E2E2E2E2E2E2E2E2E2E2E2E2E2E2E2E2E2E2E2E2E2E2E2E2E2E2E2E2E2E2E2E2E2E2E2E2E2E2E2E2E2E2E2E2F5E2E2E2E2E2E2E2E2E2E2E2E2E2E2E2E2E2E2E2E2E2E2E2E2E2E20FE2E2E2E20F
310
0F0F0F0F0F0F0F0F0F0F0F0F0F0F0F0F0F0F0F0F0F0F0F0F0F0F0F0F0F0F0F0F0F0F0F0F0F0F0F0F0F0F0F0F0F0F0F0F0F0F0F0F0F0F0F0F0F0F0F0F0F0F0F0F0F0F0F0F0F0F0F0FE2E2E2E20FE2E2E2E2E2E2E2E2E2E22D2D2D2D2D2D2D2D2D2D2D2D2D2D2D2DE22DE22D2D2D2D2D2D2DE22D2D2D2D2D2D2D2DE2E2E2E2E2
310
E2E2E2E2E2E2E2E2E2E2E2E2E2E2E2E2E2E2E2E2E2E2E2F5E2E2E2E2E2E2E2E2E2E2E2E2E2E2E2E2E2E2E2E2E2E2E2E2E2E2E2E2E2E2E2E2E2E2E2E2E2E2E2E2E2E2E2E2E2E2E2E2E2E2E2E2E2E2E2E2E2E2E2E2E2E2E2E2E2E2E2E2E2E2E2E2F5E2E2E2E2E2E2E2E2E2E2E2E2E2E2E2E2E2E2E2E2E2E2E2E2E2E20FE2E2E2
310
E2E20F0FE2E2E2E2E2E2E2E2E2E2E2E2E2E2E2E2E2E2E2E2E2E2E2E2E2E2E2E2E2E2E2E20F0FE2E2E2E2E2E2E2E2E2E2E2E2E2E2E2E2E2E2E2E2E2E2E2E2E2E2E2E2E2E2E2E2E20F0FE2E2E2E2E20FE2E2E2E2E2E2E2E2E2E22D2D2D2D2D2D2D2D2D2D2D2D2D2D2D2D2D2D2DE22D2D2D2D2D2D2D2DE22D2D2D2D2D2DE2E2E2
310
E2E2E2E2E2E2E2E2E2E2E2E2E2E2E2E2E2E2E2E2E2E2E2E2E2F5E2E2E2E2E2E2E2E2E2E2E2E2E2E2E2E2E2E2E2E2E2E2E2E2E2E2E2E2E2E2E2E2E2E2E2E2E2E2E2E2E2E2E2E2E2E2E2E2E2E2E2E2E2E2E2E2E2E2E2E2E2E2E2E2E2E2E2E2E2E2E2E2F5E2E2E2E2E2E2E2E2E2E2E2E2E2E2E2E2E2E2E2E2E2E2E2E2E2E20FE2
310
E2E2E2E2E2E2E2E2E2E2E2E2E2E2E2E2E2E2E2E2E2E2E2E2E2E2E2E2E2E2E2E2E2E2E2E2E2E2E2E2E2E2E2E2E2E2E2E2E2E2E2E2E2E2E2E2E2E2E2E2E2E2E2E2E2E2E2E2E2E2E2E2E2E2E2E2E2E2E2E20FE2E2E2E2E2E2E2E2E2E22D2D2D2D2D2D2D2D2D2D2D2D2D2D2D2D2D2D2D2D2D2D2D2D2D2D2D2DE22D2D2D2D2D2D2D
310
E2E2E2E2E2E2E2E2E2E2E2E2E2E2E2E2E2E2E2E2E2E2E2E2E2E2E2F5E2E2E2E2E2E2E2E2E2E2E2E2E2E2E2E2E2E2E2E2E2E2E2E2E2E2E2E2E2E2E2E2E2E2E2E2E2E2E2E2E2E2E2E2E2E2E2E2E2E2E2E2E2E2E2E2E2E2E2E2E2E2E2E2E2E2E2E2E2E2E2E2F5E2E2E2E2E2E2E2E2E2E2E2E2E2E2E2E2E2E2E2E2E2E2E2E2E2E2
310
0FE2E2E2E2E2E2E2E2E2E2E2E2E2E2E2E2E2E2E2E2E2E2E2E2E2E2E2E2E2E2E2E2E2E2E2E2E2E20F0F0F0FE2E2E2E2E2E2E2E2E2E2E2E2E2E2E2E2E2E2E2E2E2E2E2E2E2E2E2E2E2E2E2E2E2E2E2E2E2E2E20FE2E2E2E2E2E2E2E2E2E2E2E2E2E2E2E2E2E2E2E2E2E2E2E2E2E2E2E2E2E2E2E2E2E2E2E2E2E2E2E2E2E2E2E2
310
E2E2E2E2E2E2E2E2E2E2E2E2E2E2E2E2E2E2E2E2E2E2E2E2E2E2E2E2E2F5E2E2E2E2E2E2E2E2E2E2E2E2E2E2E2E2E2E2E2E2E2E2E2E2E2E2E2E2E2E2E2E2E2E2E2E2E2E2E2E2E2E2E2E2E2E2E2E2E2E2E2E2E2E2E2E2E2E2E2E2E2E2E2E2E2E2E2E2E2E2E2E2F5E2E2E2E2E2E2E2E2E2E2E2E2E2E2E2E2E2E2E2E2E2E2E2E2
310
E2E20F0F0F0F0F0F0F0F0F0F0F0F0F0F0F0F0F0F0F0F0F0F0F0F0F0F0F0F0F0F0F0F0F0F0F0F0F0F0F0F0F0F0F0F0F0F0F0F0F0F0F0F0F0F0F0F0F0F0F0F0F0F0F0F0F0F0F0F0F0F0F0F0F0F0F0F0F0F0F0F0F0F0FE2E2E2E2E2E2E2E2E2E2E2E2E2E2E2E2E2E2E2E2E2E2E2E2E2E2E2E2E2E2E2E2E2E2E2E2E2E2E2E2E2E2
310
E2E2E2E2E2E2E2E2E2E2E2E2E2E2E2E2E2E2E2E2E2E2E2E2E2E2E2E2E2E2E2F5E2E2E2E2E2E2E2E2E2E2E2E2E2E2E2E2E2E2E2E2E2E2E2E2E2E2E2E2E2E2E2E2E2E2E2E2E2E2E2E2E2E2E2E2E2E2E2E2E2E2E2E2E2E2E2E2E2E2E2E2E2E2E2E2E2E2E2E2E2E2E2E2F5E2E2E2E2E2E2E2E2E2E2E2E2E2E2E2E2E2E2E2E2E2E2
310
E2E2E2E2E2E2E2E2E2E2E2E2E2E2E2E2E2E2E2E2E2E2E2E2E2E2E2E2E2E2E2E2E2E2E2E2E2E2E2E2E2E2E20F0FE20FE2E2E2E2E2E2E2E2E2E2E2E2E2E2E2E2E2E2E2E2E2E2E2E2E2E2E2E2E2E2E2E2E2E2E2E2E2E2E2E2E2E2E2E2E2E2E2E2E2E2E2E2E2E2E2E2E2E2E2E2E2E2E2E2E2E2E2E2E2E2E2E2E2E2E2E2E2E2E2E2
310
E2E2E2E2E2E2E2E2E2E2E2E2E2E2E2E2E2E2E2E2E2E2E2E2E2E2E2E2E2E2E2E2E2F5E2E2E2E2E2E2E2E2E2E2E2E2E2E2E2E2E2E2E2E2E2E2E2E2E2E2E2E2E2E2E2E2E2E2E2E2E2E2E2E2E2E2E2E2E2E2E2E2E2E2E2E2E2E2E2E2E2E2E2E2E2E2E2E2E2E2E2E2E2E2E2E2F5E2E2E2E2E2E2E2E2E2E2E2E2E2E2E2E2E2E2E2E2
310
E2E2E2E2E2E2E2E2E2E2E2E2E2E2E2E2E2E2E2E2E2E2E2E2E2E2E2E2E2E2E2E2E2E2E2E2E2E2E2E2E2E2E2E2E2E2E2E2E2E2E2E2E2E2E2E2E2E2E2E2E2E2E2E2E2E2E2E2E2E2E2E2E2E2E2E2E2E2E2E2E2E2E2E2E2E2E2E2E2E2E2E2E2E2E2E2E2E2E2E2E2E2E2E2E2E2E2E2E2E2E2E2E2E2E2E2E2E2E2E2E2E2E2E2E2E2E2
310
E2E2E2E2E2E2E2E2E2E2E2E2E2E2E2E2E2E2E2E2E2E2E2E2E2E2E2E2E2E2E2E2E2E2E2F5E2E2E2E2E2E2E2E2E2E2E2E2E2E2E2E2E2E2E2E2E2E2E2E2E2E2E2E2E2E2E2E2E2E2E2E2E2E2E2E2E2E2E2E2E2E2E2E2E2E2E2E2E2E2E2E2E2E2E2E2E2E2E2E2E2E2E2E2E2E2E2E2F5F5F5F5F5F5F5F5F5F5F5F5F5F5F5F5F5F5F5
310
F5F5F5F5F5F5F5F5F5F5F5F5F5F5F5F5F5F5F5F5F5F5F5F5F5F5F5F5F5F5F5F5F5F5F5F5F5F5F5F5F5F5F5F5F5F5F5F5F5F5F5F5F5F5F5F5F5F5F5F5F5F5F5F5F5F5F5F5F5F5F5F5F5F5F5F5F5F5F5F5F5F5F5F5F5F5F5F5F5F5F5F5F5F5F5F5F5F5F5F5F5F5F5F5F5F5F5F5F5F5F5F5F5F5F5F5F5F5F5F5F5F5F5F5F5F5F5
310
F5F5F5F5F5F5F5F5F5F5F5F5F5F5F5F5F5F5F5F5F5F5F5F5F5F5F5F5F5F5F5F5F5F5F5F5F5F5E2E2E2E2E2E2E2E2E2E2E2E2E2E2E2E2E2E2E2E2E2E2E2E2E2E2E2E2E2E2E2E2E2E2E2E2E2E2E2E2E2E2E2E2E2E2E2E2E2E2E2E2E2E2E2E2E2E2E2E2E2E2E2E2E2E2E2E2E2E2E2E2E2E2E2E2E2E2E2E2E2E2E2E2E2E2E2E2E2
310
E2E2E2E2E2E2E2E2E2E2E2E2E2E2E2E2E2E2E2E2E2E2E2E2E2E2E2E2E2E2E2E2E2E2E2E2E2E2E2E2E2E2E2E2E2E2E2E2E2E2E2E2E2E2E2E2E2E2E2E2E2E2E2E2E2E2E2E2E2E2E2E2E2E2E2E2E2E2E2E2E2E2E2E2E2E2E2E2E2E2E2E2E2E2E2E2E2E2E2E2E2E2E2E2E2E2E2E2E2E2E2E2E2E2E2E2E2E2E2E2E2E2E2E2E2E2E2
310
E2E2E2E2E2E2E2E2E2E2E2E2E2E2E2E2E2E2E2E2E2E2E2E2E2E2E2E2E2E2E2E2E2E2E2E2E2E2E2E2E2E2E2E2E2E2E2E2E2E2E2E2E2E2E2E2E2E2E2E2E2E2E2E2E2E2E2E2E2E2E2E2E2E2E2E2
  0
XRECORD
  5
805
102
{ACAD_REACTORS
330
313
102
}
330
313
100
AcDbXrecord
280
     1
102
MATERIAL
148
0.0
149
0.0
149
0.0
 93
        0
 94
      127
282
     0
 72
     0
 77
     0
171
     0
175
     0
179
     0
273
     0
  0
XRECORD
  5
315
102
{ACAD_REACTORS
330
313
102
}
330
313
100
AcDbXrecord
280
     1
270
     1
271
     1
  0
XRECORD
  5
314
102
{ACAD_REACTORS
330
313
102
}
330
313
100
AcDbXrecord
280
     1
270
     1
271
     1
  0
XRECORD
  5
318
102
{ACAD_REACTORS
330
313
102
}
330
313
100
AcDbXrecord
280
     1
270
     1
271
     1
  0
XRECORD
  5
317
102
{ACAD_REACTORS
330
313
102
}
330
313
100
AcDbXrecord
280
     1
270
     1
271
     1
  0
XRECORD
  5
319
102
{ACAD_REACTORS
330
313
102
}
330
313
100
AcDbXrecord
280
     1
270
     1
271
     1
  0
XRECORD
  5
316
102
{ACAD_REACTORS
330
313
102
}
330
313
100
AcDbXrecord
280
     1
270
     1
271
     1
  0
XRECORD
  5
804
102
{ACAD_REACTORS
330
30B
102
}
330
30B
100
AcDbXrecord
280
     1
102
MATERIAL
148
0.0
149
0.0
149
0.0
 93
        0
 94
      127
282
     0
 72
     0
 77
     0
171
     0
175
     0
179
     0
273
     0
  0
XRECORD
  5
30D
102
{ACAD_REACTORS
330
30B
102
}
330
30B
100
AcDbXrecord
280
     1
270
     1
271
     1
  0
XRECORD
  5
30C
102
{ACAD_REACTORS
330
30B
102
}
330
30B
100
AcDbXrecord
280
     1
270
     1
271
     1
  0
XRECORD
  5
310
102
{ACAD_REACTORS
330
30B
102
}
330
30B
100
AcDbXrecord
280
     1
270
     1
271
     1
  0
XRECORD
  5
30F
102
{ACAD_REACTORS
330
30B
102
}
330
30B
100
AcDbXrecord
280
     1
270
     1
271
     1
  0
XRECORD
  5
311
102
{ACAD_REACTORS
330
30B
102
}
330
30B
100
AcDbXrecord
280
     1
270
     1
271
     1
  0
XRECORD
  5
30E
102
{ACAD_REACTORS
330
30B
102
}
330
30B
100
AcDbXrecord
280
     1
270
     1
271
     1
  0
XRECORD
  5
806
102
{ACAD_REACTORS
330
31B
102
}
330
31B
100
AcDbXrecord
280
     1
102
MATERIAL
148
0.0
149
0.0
149
0.0
 93
        0
 94
      127
282
     0
 72
     0
 77
     0
171
     0
175
     0
179
     0
273
     0
  0
XRECORD
  5
31D
102
{ACAD_REACTORS
330
31B
102
}
330
31B
100
AcDbXrecord
280
     1
270
     1
271
     1
  0
XRECORD
  5
31C
102
{ACAD_REACTORS
330
31B
102
}
330
31B
100
AcDbXrecord
280
     1
270
     1
271
     1
  0
XRECORD
  5
320
102
{ACAD_REACTORS
330
31B
102
}
330
31B
100
AcDbXrecord
280
     1
270
     1
271
     1
  0
XRECORD
  5
31F
102
{ACAD_REACTORS
330
31B
102
}
330
31B
100
AcDbXrecord
280
     1
270
     1
271
     1
  0
XRECORD
  5
321
102
{ACAD_REACTORS
330
31B
102
}
330
31B
100
AcDbXrecord
280
     1
270
     1
271
     1
  0
XRECORD
  5
31E
102
{ACAD_REACTORS
330
31B
102
}
330
31B
100
AcDbXrecord
280
     1
270
     1
271
     1
  0
CELLSTYLEMAP
  5
7DA
102
{ACAD_REACTORS
330
7D9
102
}
330
7D9
100
AcDbCellStyleMap
 90
        3
300
CELLSTYLE
  1
TABLEFORMAT_BEGIN
 90
        5
170
     1
 91
        0
 92
    32768
 62
   257
 93
        1
300
CONTENTFORMAT
  1
CONTENTFORMAT_BEGIN
 90
        0
 91
        0
 92
      512
 93
        0
300

 40
0.0
140
1.0
 94
        5
 62
     0
340
11
144
6.0
309
CONTENTFORMAT_END
171
     1
301
MARGIN
  1
CELLMARGIN_BEGIN
 40
1.5
 40
1.5
 40
1.5
 40
1.5
 40
4.5
 40
4.5
309
CELLMARGIN_END
 94
        6
 95
        1
302
GRIDFORMAT
  1
GRIDFORMAT_BEGIN
 90
        0
 91
        1
 62
     0
 92
       -2
340
0
 93
        0
 40
1.125
309
GRIDFORMAT_END
 95
        2
302
GRIDFORMAT
  1
GRIDFORMAT_BEGIN
 90
        0
 91
        1
 62
     0
 92
       -2
340
0
 93
        0
 40
1.125
309
GRIDFORMAT_END
 95
        4
302
GRIDFORMAT
  1
GRIDFORMAT_BEGIN
 90
        0
 91
        1
 62
     0
 92
       -2
340
0
 93
        0
 40
1.125
309
GRIDFORMAT_END
 95
        8
302
GRIDFORMAT
  1
GRIDFORMAT_BEGIN
 90
        0
 91
        1
 62
     0
 92
       -2
340
0
 93
        0
 40
1.125
309
GRIDFORMAT_END
 95
       16
302
GRIDFORMAT
  1
GRIDFORMAT_BEGIN
 90
        0
 91
        1
 62
     0
 92
       -2
340
0
 93
        0
 40
1.125
309
GRIDFORMAT_END
 95
       32
302
GRIDFORMAT
  1
GRIDFORMAT_BEGIN
 90
        0
 91
        1
 62
     0
 92
       -2
340
0
 93
        0
 40
1.125
309
GRIDFORMAT_END
309
TABLEFORMAT_END
  1
CELLSTYLE_BEGIN
 90
        1
 91
        1
300
_TITLE
309
CELLSTYLE_END
300
CELLSTYLE
  1
TABLEFORMAT_BEGIN
 90
        5
170
     1
 91
        0
 92
        0
 62
   257
 93
        1
300
CONTENTFORMAT
  1
CONTENTFORMAT_BEGIN
 90
        0
 91
        0
 92
      512
 93
        0
300

 40
0.0
140
1.0
 94
        5
 62
     0
340
11
144
4.5
309
CONTENTFORMAT_END
171
     1
301
MARGIN
  1
CELLMARGIN_BEGIN
 40
1.5
 40
1.5
 40
1.5
 40
1.5
 40
4.5
 40
4.5
309
CELLMARGIN_END
 94
        6
 95
        1
302
GRIDFORMAT
  1
GRIDFORMAT_BEGIN
 90
        0
 91
        1
 62
     0
 92
       -2
340
0
 93
        0
 40
1.125
309
GRIDFORMAT_END
 95
        2
302
GRIDFORMAT
  1
GRIDFORMAT_BEGIN
 90
        0
 91
        1
 62
     0
 92
       -2
340
0
 93
        0
 40
1.125
309
GRIDFORMAT_END
 95
        4
302
GRIDFORMAT
  1
GRIDFORMAT_BEGIN
 90
        0
 91
        1
 62
     0
 92
       -2
340
0
 93
        0
 40
1.125
309
GRIDFORMAT_END
 95
        8
302
GRIDFORMAT
  1
GRIDFORMAT_BEGIN
 90
        0
 91
        1
 62
     0
 92
       -2
340
0
 93
        0
 40
1.125
309
GRIDFORMAT_END
 95
       16
302
GRIDFORMAT
  1
GRIDFORMAT_BEGIN
 90
        0
 91
        1
 62
     0
 92
       -2
340
0
 93
        0
 40
1.125
309
GRIDFORMAT_END
 95
       32
302
GRIDFORMAT
  1
GRIDFORMAT_BEGIN
 90
        0
 91
        1
 62
     0
 92
       -2
340
0
 93
        0
 40
1.125
309
GRIDFORMAT_END
309
TABLEFORMAT_END
  1
CELLSTYLE_BEGIN
 90
        2
 91
        1
300
_HEADER
309
CELLSTYLE_END
300
CELLSTYLE
  1
TABLEFORMAT_BEGIN
 90
        5
170
     1
 91
        0
 92
        0
 62
   257
 93
        1
300
CONTENTFORMAT
  1
CONTENTFORMAT_BEGIN
 90
        0
 91
        0
 92
      512
 93
        0
300

 40
0.0
140
1.0
 94
        2
 62
     0
340
11
144
4.5
309
CONTENTFORMAT_END
171
     1
301
MARGIN
  1
CELLMARGIN_BEGIN
 40
1.5
 40
1.5
 40
1.5
 40
1.5
 40
4.5
 40
4.5
309
CELLMARGIN_END
 94
        6
 95
        1
302
GRIDFORMAT
  1
GRIDFORMAT_BEGIN
 90
        0
 91
        1
 62
     0
 92
       -2
340
0
 93
        0
 40
1.125
309
GRIDFORMAT_END
 95
        2
302
GRIDFORMAT
  1
GRIDFORMAT_BEGIN
 90
        0
 91
        1
 62
     0
 92
       -2
340
0
 93
        0
 40
1.125
309
GRIDFORMAT_END
 95
        4
302
GRIDFORMAT
  1
GRIDFORMAT_BEGIN
 90
        0
 91
        1
 62
     0
 92
       -2
340
0
 93
        0
 40
1.125
309
GRIDFORMAT_END
 95
        8
302
GRIDFORMAT
  1
GRIDFORMAT_BEGIN
 90
        0
 91
        1
 62
     0
 92
       -2
340
0
 93
        0
 40
1.125
309
GRIDFORMAT_END
 95
       16
302
GRIDFORMAT
  1
GRIDFORMAT_BEGIN
 90
        0
 91
        1
 62
     0
 92
       -2
340
0
 93
        0
 40
1.125
309
GRIDFORMAT_END
 95
       32
302
GRIDFORMAT
  1
GRIDFORMAT_BEGIN
 90
        0
 91
        1
 62
     0
 92
       -2
340
0
 93
        0
 40
1.125
309
GRIDFORMAT_END
309
TABLEFORMAT_END
  1
CELLSTYLE_BEGIN
 90
        3
 91
        2
300
_DATA
309
CELLSTYLE_END
  0
XRECORD
  5
80D
102
{ACAD_REACTORS
330
7D9
102
}
330
7D9
100
AcDbXrecord
280
     1
102
ACAD_ROUNDTRIP_PRE2007_TABLESTYLE
 90
      512
 91
        0
  1

 92
      512
 93
        0
  2

 94
      512
 95
        0
  3

  0
XRECORD
  5
7ED
102
{ACAD_REACTORS
330
7EC
102
}
330
7EC
100
AcDbXrecord
280
     1
102
RTVSPropertyOp0
 70
     1
102
RTVSPropertyOp1
 70
     1
102
RTVSPropertyOp2
 70
     1
102
RTVSPropertyOp3
 70
     1
102
RTVSPropertyOp4
 70
     1
102
RTVSPropertyOp5
 70
     1
102
RTVSPropertyOp6
 70
     1
102
RTVSPropertyOp7
 70
     1
102
RTVSPropertyOp8
 70
     1
102
RTVSPropertyOp9
 70
     1
102
RTVSPropertyOp10
 70
     1
102
RTVSPropertyOp11
 70
     1
102
RTVSPropertyOp12
 70
     1
102
RTVSPropertyOp13
 70
     1
102
RTVSPropertyOp14
 70
     1
102
RTVSPropertyOp15
 70
     1
102
RTVSPropertyOp16
 70
     1
102
RTVSPropertyOp17
 70
     1
102
RTVSPropertyOp18
 70
     1
102
RTVSPropertyOp19
 70
     1
102
RTVSPropertyOp20
 70
     1
102
RTVSPropertyOp21
 70
     1
102
RTVSPropertyOp22
 70
     1
102
RTVSPropertyOp23
 70
     1
102
RTVSPropertyOp24
 70
     1
102
RTVSPropertyOp25
 70
     1
102
RTVSPropertyOp26
 70
     1
102
RTVSPropertyOp27
 70
     1
  0
XRECORD
  5
7F1
102
{ACAD_REACTORS
330
7F0
102
}
330
7F0
100
AcDbXrecord
280
     1
102
RTVSPropertyOp0
 70
     1
102
RTVSPropertyOp1
 70
     1
102
RTVSPropertyOp2
 70
     1
102
RTVSPropertyOp3
 70
     1
102
RTVSPropertyOp4
 70
     1
102
RTVSPropertyOp5
 70
     1
102
RTVSPropertyOp6
 70
     1
102
RTVSPropertyOp7
 70
     1
102
RTVSPropertyOp8
 70
     1
102
RTVSPropertyOp9
 70
     1
102
RTVSPropertyOp10
 70
     1
102
RTVSPropertyOp11
 70
     1
102
RTVSPropertyOp12
 70
     1
102
RTVSPropertyOp13
 70
     1
102
RTVSPropertyOp14
 70
     1
102
RTVSPropertyOp15
 70
     1
102
RTVSPropertyOp16
 70
     1
102
RTVSPropertyOp17
 70
     1
102
RTVSPropertyOp18
 70
     1
102
RTVSPropertyOp19
 70
     1
102
RTVSPropertyOp20
 70
     1
102
RTVSPropertyOp21
 70
     1
102
RTVSPropertyOp22
 70
     1
102
RTVSPropertyOp23
 70
     1
102
RTVSPropertyOp24
 70
     1
102
RTVSPropertyOp25
 70
     1
102
RTVSPropertyOp26
 70
     1
102
RTVSPropertyOp27
 70
     1
  0
XRECORD
  5
7EF
102
{ACAD_REACTORS
330
7EE
102
}
330
7EE
100
AcDbXrecord
280
     1
102
RTVSPropertyOp0
 70
     1
102
RTVSPropertyOp1
 70
     1
102
RTVSPropertyOp2
 70
     1
102
RTVSPropertyOp3
 70
     1
102
RTVSPropertyOp4
 70
     1
102
RTVSPropertyOp5
 70
     1
102
RTVSPropertyOp6
 70
     1
102
RTVSPropertyOp7
 70
     1
102
RTVSPropertyOp8
 70
     1
102
RTVSPropertyOp9
 70
     1
102
RTVSPropertyOp10
 70
     1
102
RTVSPropertyOp11
 70
     1
102
RTVSPropertyOp12
 70
     1
102
RTVSPropertyOp13
 70
     1
102
RTVSPropertyOp14
 70
     1
102
RTVSPropertyOp15
 70
     1
102
RTVSPropertyOp16
 70
     1
102
RTVSPropertyOp17
 70
     1
102
RTVSPropertyOp18
 70
     1
102
RTVSPropertyOp19
 70
     1
102
RTVSPropertyOp20
 70
     1
102
RTVSPropertyOp21
 70
     1
102
RTVSPropertyOp22
 70
     1
102
RTVSPropertyOp23
 70
     1
102
RTVSPropertyOp24
 70
     1
102
RTVSPropertyOp25
 70
     1
102
RTVSPropertyOp26
 70
     1
102
RTVSPropertyOp27
 70
     1
  0
XRECORD
  5
7F3
102
{ACAD_REACTORS
330
7F2
102
}
330
7F2
100
AcDbXrecord
280
     1
102
RTVSPropertyOp0
 70
     1
102
RTVSPropertyOp1
 70
     1
102
RTVSPropertyOp2
 70
     1
102
RTVSPropertyOp3
 70
     1
102
RTVSPropertyOp4
 70
     1
102
RTVSPropertyOp5
 70
     1
102
RTVSPropertyOp6
 70
     1
102
RTVSPropertyOp7
 70
     1
102
RTVSPropertyOp8
 70
     1
102
RTVSPropertyOp9
 70
     1
102
RTVSPropertyOp10
 70
     1
102
RTVSPropertyOp11
 70
     1
102
RTVSPropertyOp12
 70
     1
102
RTVSPropertyOp13
 70
     1
102
RTVSPropertyOp14
 70
     1
102
RTVSPropertyOp15
 70
     1
102
RTVSPropertyOp16
 70
     1
102
RTVSPropertyOp17
 70
     1
102
RTVSPropertyOp18
 70
     1
102
RTVSPropertyOp19
 70
     1
102
RTVSPropertyOp20
 70
     1
102
RTVSPropertyOp21
 70
     1
102
RTVSPropertyOp22
 70
     1
102
RTVSPropertyOp23
 70
     1
102
RTVSPropertyOp24
 70
     1
102
RTVSPropertyOp25
 70
     1
102
RTVSPropertyOp26
 70
     1
102
RTVSPropertyOp27
 70
     1
  0
XRECORD
  5
7FB
102
{ACAD_REACTORS
330
7FA
102
}
330
7FA
100
AcDbXrecord
280
     1
102
RTVSPropertyOp0
 70
     1
102
RTVSPropertyOp1
 70
     1
102
RTVSPropertyOp2
 70
     1
102
RTVSPropertyOp3
 70
     1
102
RTVSPropertyOp4
 70
     1
102
RTVSPropertyOp5
 70
     1
102
RTVSPropertyOp6
 70
     1
102
RTVSPropertyOp7
 70
     1
102
RTVSPropertyOp8
 70
     1
102
RTVSPropertyOp9
 70
     1
102
RTVSPropertyOp10
 70
     1
102
RTVSPropertyOp11
 70
     1
102
RTVSPropertyOp12
 70
     1
102
RTVSPropertyOp13
 70
     1
102
RTVSPropertyOp14
 70
     1
102
RTVSPropertyOp15
 70
     1
102
RTVSPropertyOp16
 70
     1
102
RTVSPropertyOp17
 70
     1
102
RTVSPropertyOp18
 70
     1
102
RTVSPropertyOp19
 70
     1
102
RTVSPropertyOp20
 70
     1
102
RTVSPropertyOp21
 70
     1
102
RTVSPropertyOp22
 70
     1
102
RTVSPropertyOp23
 70
     1
102
RTVSPropertyOp24
 70
     1
102
RTVSPropertyOp25
 70
     1
102
RTVSPropertyOp26
 70
     1
102
RTVSPropertyOp27
 70
     1
  0
XRECORD
  5
803
102
{ACAD_REACTORS
330
802
102
}
330
802
100
AcDbXrecord
280
     1
102
RTVSPropertyOp0
 70
     1
102
RTVSPropertyOp1
 70
     1
102
RTVSPropertyOp2
 70
     1
102
RTVSPropertyOp3
 70
     1
102
RTVSPropertyOp4
 70
     1
102
RTVSPropertyOp5
 70
     1
102
RTVSPropertyOp6
 70
     1
102
RTVSPropertyOp7
 70
     1
102
RTVSPropertyOp8
 70
     1
102
RTVSPropertyOp9
 70
     1
102
RTVSPropertyOp10
 70
     1
102
RTVSPropertyOp11
 70
     1
102
RTVSPropertyOp12
 70
     1
102
RTVSPropertyOp13
 70
     1
102
RTVSPropertyOp14
 70
     1
102
RTVSPropertyOp15
 70
     1
102
RTVSPropertyOp16
 70
     1
102
RTVSPropertyOp17
 70
     1
102
RTVSPropertyOp18
 70
     1
102
RTVSPropertyOp19
 70
     1
102
RTVSPropertyOp20
 70
     1
102
RTVSPropertyOp21
 70
     1
102
RTVSPropertyOp22
 70
     1
102
RTVSPropertyOp23
 70
     1
102
RTVSPropertyOp24
 70
     1
102
RTVSPropertyOp25
 70
     1
102
RTVSPropertyOp26
 70
     1
102
RTVSPropertyOp27
 70
     1
  0
XRECORD
  5
7F7
102
{ACAD_REACTORS
330
7F6
102
}
330
7F6
100
AcDbXrecord
280
     1
102
RTVSPropertyOp0
 70
     1
102
RTVSPropertyOp1
 70
     1
102
RTVSPropertyOp2
 70
     1
102
RTVSPropertyOp3
 70
     1
102
RTVSPropertyOp4
 70
     1
102
RTVSPropertyOp5
 70
     1
102
RTVSPropertyOp6
 70
     1
102
RTVSPropertyOp7
 70
     1
102
RTVSPropertyOp8
 70
     1
102
RTVSPropertyOp9
 70
     1
102
RTVSPropertyOp10
 70
     1
102
RTVSPropertyOp11
 70
     1
102
RTVSPropertyOp12
 70
     1
102
RTVSPropertyOp13
 70
     1
102
RTVSPropertyOp14
 70
     1
102
RTVSPropertyOp15
 70
     1
102
RTVSPropertyOp16
 70
     1
102
RTVSPropertyOp17
 70
     1
102
RTVSPropertyOp18
 70
     1
102
RTVSPropertyOp19
 70
     1
102
RTVSPropertyOp20
 70
     1
102
RTVSPropertyOp21
 70
     1
102
RTVSPropertyOp22
 70
     1
102
RTVSPropertyOp23
 70
     1
102
RTVSPropertyOp24
 70
     1
102
RTVSPropertyOp25
 70
     1
102
RTVSPropertyOp26
 70
     1
102
RTVSPropertyOp27
 70
     1
  0
XRECORD
  5
7F9
102
{ACAD_REACTORS
330
7F8
102
}
330
7F8
100
AcDbXrecord
280
     1
102
RTVSPropertyOp0
 70
     1
102
RTVSPropertyOp1
 70
     1
102
RTVSPropertyOp2
 70
     1
102
RTVSPropertyOp3
 70
     1
102
RTVSPropertyOp4
 70
     1
102
RTVSPropertyOp5
 70
     1
102
RTVSPropertyOp6
 70
     1
102
RTVSPropertyOp7
 70
     1
102
RTVSPropertyOp8
 70
     1
102
RTVSPropertyOp9
 70
     1
102
RTVSPropertyOp10
 70
     1
102
RTVSPropertyOp11
 70
     1
102
RTVSPropertyOp12
 70
     1
102
RTVSPropertyOp13
 70
     1
102
RTVSPropertyOp14
 70
     1
102
RTVSPropertyOp15
 70
     1
102
RTVSPropertyOp16
 70
     1
102
RTVSPropertyOp17
 70
     1
102
RTVSPropertyOp18
 70
     1
102
RTVSPropertyOp19
 70
     1
102
RTVSPropertyOp20
 70
     1
102
RTVSPropertyOp21
 70
     1
102
RTVSPropertyOp22
 70
     1
102
RTVSPropertyOp23
 70
     1
102
RTVSPropertyOp24
 70
     1
102
RTVSPropertyOp25
 70
     1
102
RTVSPropertyOp26
 70
     1
102
RTVSPropertyOp27
 70
     1
  0
XRECORD
  5
80C
102
{ACAD_REACTORS
330
80B
102
}
330
80B
100
AcDbXrecord
280
     1
102
RTVSPropertyOp0
 70
     0
102
RTVSPropertyOp1
 70
     0
102
RTVSPropertyOp2
 70
     0
102
RTVSPropertyOp3
 70
     0
102
RTVSPropertyOp4
 70
     0
102
RTVSPropertyOp5
 70
     0
102
RTVSPropertyOp6
 70
     0
102
RTVSPropertyOp7
 70
     0
102
RTVSPropertyOp8
 70
     0
102
RTVSPropertyOp9
 70
     0
102
RTVSPropertyOp10
 70
     0
102
RTVSPropertyOp11
 70
     0
102
RTVSPropertyOp12
 70
     0
102
RTVSPropertyOp13
 70
     0
102
RTVSPropertyOp14
 70
     2
102
RTVSPropertyOp15
 70
     0
102
RTVSPropertyOp16
 70
     0
102
RTVSPropertyOp17
 70
     0
102
RTVSPropertyOp18
 70
     0
102
RTVSPropertyOp19
 70
     0
102
RTVSPropertyOp20
 70
     0
102
RTVSPropertyOp21
 70
     0
102
RTVSPropertyOp22
 70
     0
102
RTVSPropertyOp23
 70
     0
102
RTVSPropertyOp24
 70
     0
102
RTVSPropertyOp25
 70
     0
102
RTVSPropertyOp26
 70
     0
102
RTVSPropertyOp27
 70
     0
  0
XRECORD
  5
801
102
{ACAD_REACTORS
330
800
102
}
330
800
100
AcDbXrecord
280
     1
102
RTVSPropertyOp0
 70
     1
102
RTVSPropertyOp1
 70
     1
102
RTVSPropertyOp2
 70
     1
102
RTVSPropertyOp3
 70
     1
102
RTVSPropertyOp4
 70
     1
102
RTVSPropertyOp5
 70
     1
102
RTVSPropertyOp6
 70
     1
102
RTVSPropertyOp7
 70
     1
102
RTVSPropertyOp8
 70
     1
102
RTVSPropertyOp9
 70
     1
102
RTVSPropertyOp10
 70
     1
102
RTVSPropertyOp11
 70
     1
102
RTVSPropertyOp12
 70
     1
102
RTVSPropertyOp13
 70
     1
102
RTVSPropertyOp14
 70
     1
102
RTVSPropertyOp15
 70
     1
102
RTVSPropertyOp16
 70
     1
102
RTVSPropertyOp17
 70
     1
102
RTVSPropertyOp18
 70
     1
102
RTVSPropertyOp19
 70
     1
102
RTVSPropertyOp20
 70
     1
102
RTVSPropertyOp21
 70
     1
102
RTVSPropertyOp22
 70
     1
102
RTVSPropertyOp23
 70
     1
102
RTVSPropertyOp24
 70
     1
102
RTVSPropertyOp25
 70
     1
102
RTVSPropertyOp26
 70
     1
102
RTVSPropertyOp27
 70
     1
  0
XRECORD
  5
7E5
102
{ACAD_REACTORS
330
7E4
102
}
330
7E4
100
AcDbXrecord
280
     1
102
RTVSPropertyOp0
 70
     1
102
RTVSPropertyOp1
 70
     1
102
RTVSPropertyOp2
 70
     1
102
RTVSPropertyOp3
 70
     1
102
RTVSPropertyOp4
 70
     1
102
RTVSPropertyOp5
 70
     1
102
RTVSPropertyOp6
 70
     1
102
RTVSPropertyOp7
 70
     1
102
RTVSPropertyOp8
 70
     1
102
RTVSPropertyOp9
 70
     1
102
RTVSPropertyOp10
 70
     1
102
RTVSPropertyOp11
 70
     1
102
RTVSPropertyOp12
 70
     1
102
RTVSPropertyOp13
 70
     1
102
RTVSPropertyOp14
 70
     1
102
RTVSPropertyOp15
 70
     1
102
RTVSPropertyOp16
 70
     1
102
RTVSPropertyOp17
 70
     1
102
RTVSPropertyOp18
 70
     1
102
RTVSPropertyOp19
 70
     1
102
RTVSPropertyOp20
 70
     1
102
RTVSPropertyOp21
 70
     1
102
RTVSPropertyOp22
 70
     1
102
RTVSPropertyOp23
 70
     1
102
RTVSPropertyOp24
 70
     1
102
RTVSPropertyOp25
 70
     1
102
RTVSPropertyOp26
 70
     1
102
RTVSPropertyOp27
 70
     1
  0
XRECORD
  5
7E7
102
{ACAD_REACTORS
330
7E6
102
}
330
7E6
100
AcDbXrecord
280
     1
102
RTVSPropertyOp0
 70
     1
102
RTVSPropertyOp1
 70
     1
102
RTVSPropertyOp2
 70
     1
102
RTVSPropertyOp3
 70
     1
102
RTVSPropertyOp4
 70
     1
102
RTVSPropertyOp5
 70
     1
102
RTVSPropertyOp6
 70
     1
102
RTVSPropertyOp7
 70
     1
102
RTVSPropertyOp8
 70
     1
102
RTVSPropertyOp9
 70
     1
102
RTVSPropertyOp10
 70
     1
102
RTVSPropertyOp11
 70
     1
102
RTVSPropertyOp12
 70
     1
102
RTVSPropertyOp13
 70
     1
102
RTVSPropertyOp14
 70
     1
102
RTVSPropertyOp15
 70
     1
102
RTVSPropertyOp16
 70
     1
102
RTVSPropertyOp17
 70
     1
102
RTVSPropertyOp18
 70
     1
102
RTVSPropertyOp19
 70
     1
102
RTVSPropertyOp20
 70
     1
102
RTVSPropertyOp21
 70
     1
102
RTVSPropertyOp22
 70
     1
102
RTVSPropertyOp23
 70
     1
102
RTVSPropertyOp24
 70
     1
102
RTVSPropertyOp25
 70
     1
102
RTVSPropertyOp26
 70
     1
102
RTVSPropertyOp27
 70
     1
  0
XRECORD
  5
7E9
102
{ACAD_REACTORS
330
7E8
102
}
330
7E8
100
AcDbXrecord
280
     1
102
RTVSPropertyOp0
 70
     1
102
RTVSPropertyOp1
 70
     1
102
RTVSPropertyOp2
 70
     1
102
RTVSPropertyOp3
 70
     1
102
RTVSPropertyOp4
 70
     1
102
RTVSPropertyOp5
 70
     1
102
RTVSPropertyOp6
 70
     1
102
RTVSPropertyOp7
 70
     1
102
RTVSPropertyOp8
 70
     1
102
RTVSPropertyOp9
 70
     1
102
RTVSPropertyOp10
 70
     1
102
RTVSPropertyOp11
 70
     1
102
RTVSPropertyOp12
 70
     1
102
RTVSPropertyOp13
 70
     1
102
RTVSPropertyOp14
 70
     1
102
RTVSPropertyOp15
 70
     1
102
RTVSPropertyOp16
 70
     1
102
RTVSPropertyOp17
 70
     1
102
RTVSPropertyOp18
 70
     1
102
RTVSPropertyOp19
 70
     1
102
RTVSPropertyOp20
 70
     1
102
RTVSPropertyOp21
 70
     1
102
RTVSPropertyOp22
 70
     1
102
RTVSPropertyOp23
 70
     1
102
RTVSPropertyOp24
 70
     1
102
RTVSPropertyOp25
 70
     1
102
RTVSPropertyOp26
 70
     1
102
RTVSPropertyOp27
 70
     1
  0
XRECORD
  5
7EB
102
{ACAD_REACTORS
330
7EA
102
}
330
7EA
100
AcDbXrecord
280
     1
102
RTVSPropertyOp0
 70
     1
102
RTVSPropertyOp1
 70
     1
102
RTVSPropertyOp2
 70
     1
102
RTVSPropertyOp3
 70
     1
102
RTVSPropertyOp4
 70
     1
102
RTVSPropertyOp5
 70
     1
102
RTVSPropertyOp6
 70
     1
102
RTVSPropertyOp7
 70
     1
102
RTVSPropertyOp8
 70
     1
102
RTVSPropertyOp9
 70
     1
102
RTVSPropertyOp10
 70
     1
102
RTVSPropertyOp11
 70
     1
102
RTVSPropertyOp12
 70
     1
102
RTVSPropertyOp13
 70
     1
102
RTVSPropertyOp14
 70
     1
102
RTVSPropertyOp15
 70
     1
102
RTVSPropertyOp16
 70
     1
102
RTVSPropertyOp17
 70
     1
102
RTVSPropertyOp18
 70
     1
102
RTVSPropertyOp19
 70
     1
102
RTVSPropertyOp20
 70
     1
102
RTVSPropertyOp21
 70
     1
102
RTVSPropertyOp22
 70
     1
102
RTVSPropertyOp23
 70
     1
102
RTVSPropertyOp24
 70
     1
102
RTVSPropertyOp25
 70
     1
102
RTVSPropertyOp26
 70
     1
102
RTVSPropertyOp27
 70
     1
  0
XRECORD
  5
808
102
{ACAD_REACTORS
330
807
102
}
330
807
100
AcDbXrecord
280
     1
102
RTVSPropertyOp0
 70
     0
102
RTVSPropertyOp1
 70
     0
102
RTVSPropertyOp2
 70
     0
102
RTVSPropertyOp3
 70
     0
102
RTVSPropertyOp4
 70
     0
102
RTVSPropertyOp5
 70
     0
102
RTVSPropertyOp6
 70
     0
102
RTVSPropertyOp7
 70
     0
102
RTVSPropertyOp8
 70
     0
102
RTVSPropertyOp9
 70
     0
102
RTVSPropertyOp10
 70
     0
102
RTVSPropertyOp11
 70
     0
102
RTVSPropertyOp12
 70
     0
102
RTVSPropertyOp13
 70
     0
102
RTVSPropertyOp14
 70
     2
102
RTVSPropertyOp15
 70
     0
102
RTVSPropertyOp16
 70
     0
102
RTVSPropertyOp17
 70
     0
102
RTVSPropertyOp18
 70
     0
102
RTVSPropertyOp19
 70
     0
102
RTVSPropertyOp20
 70
     0
102
RTVSPropertyOp21
 70
     0
102
RTVSPropertyOp22
 70
     0
102
RTVSPropertyOp23
 70
     0
102
RTVSPropertyOp24
 70
     0
102
RTVSPropertyOp25
 70
     0
102
RTVSPropertyOp26
 70
     0
102
RTVSPropertyOp27
 70
     0
  0
XRECORD
  5
7FF
102
{ACAD_REACTORS
330
7FE
102
}
330
7FE
100
AcDbXrecord
280
     1
102
RTVSPropertyOp0
 70
     1
102
RTVSPropertyOp1
 70
     1
102
RTVSPropertyOp2
 70
     1
102
RTVSPropertyOp3
 70
     1
102
RTVSPropertyOp4
 70
     1
102
RTVSPropertyOp5
 70
     1
102
RTVSPropertyOp6
 70
     1
102
RTVSPropertyOp7
 70
     1
102
RTVSPropertyOp8
 70
     1
102
RTVSPropertyOp9
 70
     1
102
RTVSPropertyOp10
 70
     1
102
RTVSPropertyOp11
 70
     1
102
RTVSPropertyOp12
 70
     1
102
RTVSPropertyOp13
 70
     1
102
RTVSPropertyOp14
 70
     1
102
RTVSPropertyOp15
 70
     1
102
RTVSPropertyOp16
 70
     1
102
RTVSPropertyOp17
 70
     1
102
RTVSPropertyOp18
 70
     1
102
RTVSPropertyOp19
 70
     1
102
RTVSPropertyOp20
 70
     1
102
RTVSPropertyOp21
 70
     1
102
RTVSPropertyOp22
 70
     1
102
RTVSPropertyOp23
 70
     1
102
RTVSPropertyOp24
 70
     1
102
RTVSPropertyOp25
 70
     1
102
RTVSPropertyOp26
 70
     1
102
RTVSPropertyOp27
 70
     1
  0
XRECORD
  5
80A
102
{ACAD_REACTORS
330
809
102
}
330
809
100
AcDbXrecord
280
     1
102
RTVSPropertyOp0
 70
     0
102
RTVSPropertyOp1
 70
     0
102
RTVSPropertyOp2
 70
     0
102
RTVSPropertyOp3
 70
     0
102
RTVSPropertyOp4
 70
     0
102
RTVSPropertyOp5
 70
     0
102
RTVSPropertyOp6
 70
     0
102
RTVSPropertyOp7
 70
     0
102
RTVSPropertyOp8
 70
     0
102
RTVSPropertyOp9
 70
     0
102
RTVSPropertyOp10
 70
     0
102
RTVSPropertyOp11
 70
     0
102
RTVSPropertyOp12
 70
     0
102
RTVSPropertyOp13
 70
     0
102
RTVSPropertyOp14
 70
     2
102
RTVSPropertyOp15
 70
     0
102
RTVSPropertyOp16
 70
     0
102
RTVSPropertyOp17
 70
     0
102
RTVSPropertyOp18
 70
     0
102
RTVSPropertyOp19
 70
     0
102
RTVSPropertyOp20
 70
     0
102
RTVSPropertyOp21
 70
     0
102
RTVSPropertyOp22
 70
     0
102
RTVSPropertyOp23
 70
     0
102
RTVSPropertyOp24
 70
     0
102
RTVSPropertyOp25
 70
     0
102
RTVSPropertyOp26
 70
     0
102
RTVSPropertyOp27
 70
     0
  0
XRECORD
  5
7F5
102
{ACAD_REACTORS
330
7F4
102
}
330
7F4
100
AcDbXrecord
280
     1
102
RTVSPropertyOp0
 70
     1
102
RTVSPropertyOp1
 70
     1
102
RTVSPropertyOp2
 70
     1
102
RTVSPropertyOp3
 70
     1
102
RTVSPropertyOp4
 70
     1
102
RTVSPropertyOp5
 70
     1
102
RTVSPropertyOp6
 70
     1
102
RTVSPropertyOp7
 70
     1
102
RTVSPropertyOp8
 70
     1
102
RTVSPropertyOp9
 70
     1
102
RTVSPropertyOp10
 70
     1
102
RTVSPropertyOp11
 70
     1
102
RTVSPropertyOp12
 70
     1
102
RTVSPropertyOp13
 70
     1
102
RTVSPropertyOp14
 70
     1
102
RTVSPropertyOp15
 70
     1
102
RTVSPropertyOp16
 70
     1
102
RTVSPropertyOp17
 70
     1
102
RTVSPropertyOp18
 70
     1
102
RTVSPropertyOp19
 70
     1
102
RTVSPropertyOp20
 70
     1
102
RTVSPropertyOp21
 70
     1
102
RTVSPropertyOp22
 70
     1
102
RTVSPropertyOp23
 70
     1
102
RTVSPropertyOp24
 70
     1
102
RTVSPropertyOp25
 70
     1
102
RTVSPropertyOp26
 70
     1
102
RTVSPropertyOp27
 70
     1
  0
XRECORD
  5
7FD
102
{ACAD_REACTORS
330
7FC
102
}
330
7FC
100
AcDbXrecord
280
     1
102
RTVSPropertyOp0
 70
     1
102
RTVSPropertyOp1
 70
     1
102
RTVSPropertyOp2
 70
     1
102
RTVSPropertyOp3
 70
     1
102
RTVSPropertyOp4
 70
     1
102
RTVSPropertyOp5
 70
     1
102
RTVSPropertyOp6
 70
     1
102
RTVSPropertyOp7
 70
     1
102
RTVSPropertyOp8
 70
     1
102
RTVSPropertyOp9
 70
     1
102
RTVSPropertyOp10
 70
     1
102
RTVSPropertyOp11
 70
     1
102
RTVSPropertyOp12
 70
     1
102
RTVSPropertyOp13
 70
     1
102
RTVSPropertyOp14
 70
     1
102
RTVSPropertyOp15
 70
     1
102
RTVSPropertyOp16
 70
     1
102
RTVSPropertyOp17
 70
     1
102
RTVSPropertyOp18
 70
     1
102
RTVSPropertyOp19
 70
     1
102
RTVSPropertyOp20
 70
     1
102
RTVSPropertyOp21
 70
     1
102
RTVSPropertyOp22
 70
     1
102
RTVSPropertyOp23
 70
     1
102
RTVSPropertyOp24
 70
     1
102
RTVSPropertyOp25
 70
     1
102
RTVSPropertyOp26
 70
     1
102
RTVSPropertyOp27
 70
     1
  0
ENDSEC
  0
EOF
